  0
SECTION
  2
HEADER
  9
$ACADVER
  1
AC1015
  9
$ACADMAINTVER
 70
    20
  9
$DWGCODEPAGE
  3
ANSI_1252
  9
$INSBASE
 10
0.0
 20
0.0
 30
0.0
  9
$EXTMIN
 10
5574.960235964311
 20
-188.0971384123913
 30
-0.0015258207003583
  9
$EXTMAX
 10
7138.961761452913
 20
2962.023642881955
 30
0.0000000349246037
  9
$LIMMIN
 10
0.0
 20
0.0
  9
$LIMMAX
 10
2000.0
 20
2000.0
  9
$ORTHOMODE
 70
     0
  9
$REGENMODE
 70
     1
  9
$FILLMODE
 70
     1
  9
$QTEXTMODE
 70
     0
  9
$MIRRTEXT
 70
     1
  9
$LTSCALE
 40
1.0
  9
$ATTMODE
 70
     1
  9
$TEXTSIZE
 40
16.83501683501684
  9
$TRACEWID
 40
1.0
  9
$TEXTSTYLE
  7
STANDARD
  9
$CLAYER
  8
0
  9
$CELTYPE
  6
BYLAYER
  9
$CECOLOR
 62
   256
  9
$CELTSCALE
 40
1.0
  9
$DISPSILH
 70
     0
  9
$DIMSCALE
 40
0.0
  9
$DIMASZ
 40
2.5
  9
$DIMEXO
 40
5.0
  9
$DIMDLI
 40
3.75
  9
$DIMRND
 40
0.0
  9
$DIMDLE
 40
0.0
  9
$DIMEXE
 40
1.25
  9
$DIMTP
 40
0.0
  9
$DIMTM
 40
0.0
  9
$DIMTXT
 40
2.5
  9
$DIMCEN
 40
2.5
  9
$DIMTSZ
 40
0.0
  9
$DIMTOL
 70
     0
  9
$DIMLIM
 70
     0
  9
$DIMTIH
 70
     0
  9
$DIMTOH
 70
     0
  9
$DIMSE1
 70
     0
  9
$DIMSE2
 70
     0
  9
$DIMTAD
 70
     1
  9
$DIMZIN
 70
     8
  9
$DIMBLK
  1

  9
$DIMASO
 70
     1
  9
$DIMSHO
 70
     1
  9
$DIMPOST
  1

  9
$DIMAPOST
  1

  9
$DIMALT
 70
     0
  9
$DIMALTD
 70
     1
  9
$DIMALTF
 40
1.0
  9
$DIMLFAC
 40
-1.0
  9
$DIMTOFL
 70
     1
  9
$DIMTVP
 40
0.0
  9
$DIMTIX
 70
     0
  9
$DIMSOXD
 70
     0
  9
$DIMSAH
 70
     0
  9
$DIMBLK1
  1

  9
$DIMBLK2
  1

  9
$DIMSTYLE
  2
ISO-25_WS
  9
$DIMCLRD
 70
     0
  9
$DIMCLRE
 70
     0
  9
$DIMCLRT
 70
     0
  9
$DIMTFAC
 40
1.0
  9
$DIMGAP
 40
0.625
  9
$DIMJUST
 70
     0
  9
$DIMSD1
 70
     0
  9
$DIMSD2
 70
     0
  9
$DIMTOLJ
 70
     1
  9
$DIMTZIN
 70
     0
  9
$DIMALTZ
 70
     0
  9
$DIMALTTZ
 70
     0
  9
$DIMUPT
 70
     0
  9
$DIMDEC
 70
     1
  9
$DIMTDEC
 70
     1
  9
$DIMALTU
 70
     8
  9
$DIMALTTD
 70
     1
  9
$DIMTXSTY
  7
STANDARD
  9
$DIMAUNIT
 70
     0
  9
$DIMADEC
 70
     0
  9
$DIMALTRND
 40
0.0
  9
$DIMAZIN
 70
     0
  9
$DIMDSEP
 70
    46
  9
$DIMATFIT
 70
     3
  9
$DIMFRAC
 70
     0
  9
$DIMLDRBLK
  1

  9
$DIMLUNIT
 70
     2
  9
$DIMLWD
 70
    13
  9
$DIMLWE
 70
    13
  9
$DIMTMOVE
 70
     0
  9
$LUNITS
 70
     2
  9
$LUPREC
 70
     4
  9
$SKETCHINC
 40
1.0
  9
$FILLETRAD
 40
0.0
  9
$AUNITS
 70
     0
  9
$AUPREC
 70
     0
  9
$MENU
  1
.
  9
$ELEVATION
 40
0.0
  9
$PELEVATION
 40
0.0
  9
$THICKNESS
 40
0.0
  9
$LIMCHECK
 70
     0
  9
$CHAMFERA
 40
1.5
  9
$CHAMFERB
 40
1.5
  9
$CHAMFERC
 40
134.6801346801347
  9
$CHAMFERD
 40
0.0
  9
$SKPOLY
 70
     1
  9
$TDCREATE
 40
2455468.465042303
  9
$TDUCREATE
 40
2455468.381708970
  9
$TDUPDATE
 40
2458249.507719965
  9
$TDUUPDATE
 40
2458249.424386632
  9
$TDINDWG
 40
0.8802122454
  9
$TDUSRTIMER
 40
0.8802119676
  9
$USRTIMER
 70
     1
  9
$ANGBASE
 50
0.0
  9
$ANGDIR
 70
     0
  9
$PDMODE
 70
     0
  9
$PDSIZE
 40
0.0
  9
$PLINEWID
 40
0.0
  9
$SPLFRAME
 70
     0
  9
$SPLINETYPE
 70
     6
  9
$SPLINESEGS
 70
     8
  9
$HANDSEED
  5
27609
  9
$SURFTAB1
 70
     6
  9
$SURFTAB2
 70
     6
  9
$SURFTYPE
 70
     6
  9
$SURFU
 70
     6
  9
$SURFV
 70
     6
  9
$UCSBASE
  2

  9
$UCSNAME
  2

  9
$UCSORG
 10
0.0
 20
0.0
 30
0.0
  9
$UCSXDIR
 10
1.0
 20
0.0
 30
0.0
  9
$UCSYDIR
 10
0.0
 20
1.0
 30
0.0
  9
$UCSORTHOREF
  2

  9
$UCSORTHOVIEW
 70
     0
  9
$UCSORGTOP
 10
0.0
 20
0.0
 30
0.0
  9
$UCSORGBOTTOM
 10
0.0
 20
0.0
 30
0.0
  9
$UCSORGLEFT
 10
0.0
 20
0.0
 30
0.0
  9
$UCSORGRIGHT
 10
0.0
 20
0.0
 30
0.0
  9
$UCSORGFRONT
 10
0.0
 20
0.0
 30
0.0
  9
$UCSORGBACK
 10
0.0
 20
0.0
 30
0.0
  9
$PUCSBASE
  2

  9
$PUCSNAME
  2

  9
$PUCSORG
 10
0.0
 20
0.0
 30
0.0
  9
$PUCSXDIR
 10
1.0
 20
0.0
 30
0.0
  9
$PUCSYDIR
 10
0.0
 20
1.0
 30
0.0
  9
$PUCSORTHOREF
  2

  9
$PUCSORTHOVIEW
 70
     0
  9
$PUCSORGTOP
 10
0.0
 20
0.0
 30
0.0
  9
$PUCSORGBOTTOM
 10
0.0
 20
0.0
 30
0.0
  9
$PUCSORGLEFT
 10
0.0
 20
0.0
 30
0.0
  9
$PUCSORGRIGHT
 10
0.0
 20
0.0
 30
0.0
  9
$PUCSORGFRONT
 10
0.0
 20
0.0
 30
0.0
  9
$PUCSORGBACK
 10
0.0
 20
0.0
 30
0.0
  9
$USERI1
 70
     0
  9
$USERI2
 70
     0
  9
$USERI3
 70
     0
  9
$USERI4
 70
     0
  9
$USERI5
 70
     0
  9
$USERR1
 40
0.0
  9
$USERR2
 40
0.0
  9
$USERR3
 40
0.0
  9
$USERR4
 40
0.0
  9
$USERR5
 40
0.0
  9
$WORLDVIEW
 70
     1
  9
$SHADEDGE
 70
     3
  9
$SHADEDIF
 70
    70
  9
$TILEMODE
 70
     1
  9
$MAXACTVP
 70
    48
  9
$PINSBASE
 10
0.0
 20
0.0
 30
0.0
  9
$PLIMCHECK
 70
     0
  9
$PEXTMIN
 10
27.9632857322693
 20
20.15701580047608
 30
0.0
  9
$PEXTMAX
 10
251.6695715904236
 20
181.4131422042846
 30
0.0
  9
$PLIMMIN
 10
-3.84173583984375
 20
-4.222749710083006
  9
$PLIMMAX
 10
293.1265869140625
 20
205.7505779266358
  9
$UNITMODE
 70
     0
  9
$VISRETAIN
 70
     1
  9
$PLINEGEN
 70
     0
  9
$PSLTSCALE
 70
     1
  9
$TREEDEPTH
 70
  3020
  9
$CMLSTYLE
  2
STANDARD
  9
$CMLJUST
 70
     0
  9
$CMLSCALE
 40
1.0
  9
$PROXYGRAPHICS
 70
     1
  9
$MEASUREMENT
 70
     1
  9
$CELWEIGHT
370
    -1
  9
$ENDCAPS
280
     0
  9
$JOINSTYLE
280
     0
  9
$LWDISPLAY
290
     0
  9
$INSUNITS
 70
     0
  9
$HYPERLINKBASE
  1

  9
$STYLESHEET
  1

  9
$XEDIT
290
     1
  9
$CEPSNTYPE
380
     0
  9
$PSTYLEMODE
290
     1
  9
$FINGERPRINTGUID
  2
{621619AD-4B1D-4D17-B3DA-F4E69AAF2DFF}
  9
$VERSIONGUID
  2
{E1DD6F15-47EC-4AFB-9BB3-141396D3D429}
  9
$EXTNAMES
290
     1
  9
$PSVPSCALE
 40
0.0
  9
$OLESTARTUP
290
     0
  0
ENDSEC
  0
SECTION
  2
CLASSES
  0
CLASS
  1
DICTIONARYVAR
  2
AcDbDictionaryVar
  3
ObjectDBX Classes
 90
        0
280
     0
281
     0
  0
CLASS
  1
ACDBDICTIONARYWDFLT
  2
AcDbDictionaryWithDefault
  3
ObjectDBX Classes
 90
        0
280
     0
281
     0
  0
CLASS
  1
ACDBPLACEHOLDER
  2
AcDbPlaceHolder
  3
ObjectDBX Classes
 90
        0
280
     0
281
     0
  0
CLASS
  1
LAYOUT
  2
AcDbLayout
  3
ObjectDBX Classes
 90
        0
280
     0
281
     0
  0
CLASS
  1
MATERIAL
  2
AcDbMaterial
  3
ObjectDBX Classes
 90
     1153
280
     0
281
     0
  0
CLASS
  1
VISUALSTYLE
  2
AcDbVisualStyle
  3
ObjectDBX Classes
 90
     4095
280
     0
281
     0
  0
CLASS
  1
TABLESTYLE
  2
AcDbTableStyle
  3
ObjectDBX Classes
 90
     4095
280
     0
281
     0
  0
CLASS
  1
SCALE
  2
AcDbScale
  3
ObjectDBX Classes
 90
     1153
280
     0
281
     0
  0
CLASS
  1
MLEADERSTYLE
  2
AcDbMLeaderStyle
  3
ACDB_MLEADERSTYLE_CLASS
 90
     4095
280
     0
281
     0
  0
CLASS
  1
EXACXREFPANELOBJECT
  2
ExAcXREFPanelObject
  3
EXAC_ESW
 90
    33793
280
     0
281
     0
  0
CLASS
  1
NPOCOLLECTION
  2
AcDbImpNonPersistentObjectsCollection
  3
ObjectDBX Classes
 90
    33921
280
     0
281
     0
  0
CLASS
  1
CELLSTYLEMAP
  2
AcDbCellStyleMap
  3
ObjectDBX Classes
 90
     1152
280
     0
281
     0
  0
CLASS
  1
SORTENTSTABLE
  2
AcDbSortentsTable
  3
ObjectDBX Classes
 90
        0
280
     0
281
     0
  0
ENDSEC
  0
SECTION
  2
TABLES
  0
TABLE
  2
VPORT
  5
8
102
{ACAD_XDICTIONARY
360
141C8
102
}
330
0
100
AcDbSymbolTable
 70
     1
  0
VPORT
  5
195
330
8
100
AcDbSymbolTableRecord
100
AcDbViewportTableRecord
  2
*Active
 70
     0
 10
0.0
 20
0.0
 11
1.0
 21
1.0
 12
6356.960998708611
 22
1386.963252234782
 13
0.0
 23
0.0
 14
67.0
 24
67.0
 15
67.0
 25
67.0
 16
0.0
 26
0.0
 36
1.0
 17
0.0
 27
0.0
 37
0.0
 40
3171.795924284904
 41
1.359357060849598
 42
50.0
 43
0.0
 44
0.0
 50
0.0
 51
0.0
 71
     0
 72
   100
 73
     1
 74
     1
 75
     0
 76
     0
 77
     0
 78
     0
281
     0
 65
     1
110
0.0
120
0.0
130
0.0
111
1.0
121
0.0
131
0.0
112
0.0
122
1.0
132
0.0
 79
     0
146
0.0
  0
ENDTAB
  0
TABLE
  2
LTYPE
  5
5
330
0
100
AcDbSymbolTable
 70
     3
  0
LTYPE
  5
14
330
5
100
AcDbSymbolTableRecord
100
AcDbLinetypeTableRecord
  2
BYBLOCK
 70
     0
  3

 72
    65
 73
     0
 40
0.0
  0
LTYPE
  5
15
330
5
100
AcDbSymbolTableRecord
100
AcDbLinetypeTableRecord
  2
BYLAYER
 70
     0
  3

 72
    65
 73
     0
 40
0.0
  0
LTYPE
  5
16
330
5
100
AcDbSymbolTableRecord
100
AcDbLinetypeTableRecord
  2
CONTINUOUS
 70
     0
  3
Solid line
 72
    65
 73
     0
 40
0.0
  0
LTYPE
  5
80
330
5
100
AcDbSymbolTableRecord
100
AcDbLinetypeTableRecord
  2
ACAD_ISO02W100
 70
     0
  3
 ISO trazo __ __ __ __ __ __ __ __ __ __ __ __ 
 72
    65
 73
     2
 40
15.0
 49
12.0
 74
     0
 49
-3.0
 74
     0
  0
LTYPE
  5
81
330
5
100
AcDbSymbolTableRecord
100
AcDbLinetypeTableRecord
  2
ACAD_ISO10W100
 70
     0
  3
 ISO trazo, punto __ . __ . __ . __ . __ . __ .
 72
    65
 73
     4
 40
18.5
 49
12.0
 74
     0
 49
-3.0
 74
     0
 49
0.5
 74
     0
 49
-3.0
 74
     0
  0
ENDTAB
  0
TABLE
  2
LAYER
  5
2
102
{ACAD_XDICTIONARY
360
1E7
102
}
330
0
100
AcDbSymbolTable
 70
    10
  0
LAYER
  5
F
102
{ACAD_XDICTIONARY
360
141B5
102
}
330
2
100
AcDbSymbolTableRecord
100
AcDbLayerTableRecord
  2
0
 70
     0
 62
     7
  6
CONTINUOUS
370
    -3
390
90
  0
LAYER
  5
83
102
{ACAD_XDICTIONARY
360
141B7
102
}
330
2
100
AcDbSymbolTableRecord
100
AcDbLayerTableRecord
  2
OCULTES
 70
     0
 62
    21
  6
ACAD_ISO02W100
370
    13
390
90
  0
LAYER
  5
84
102
{ACAD_XDICTIONARY
360
141B9
102
}
330
2
100
AcDbSymbolTableRecord
100
AcDbLayerTableRecord
  2
EIXOS
 70
     0
 62
    10
  6
ACAD_ISO10W100
370
    13
390
90
  0
LAYER
  5
85
102
{ACAD_XDICTIONARY
360
141BB
102
}
330
2
100
AcDbSymbolTableRecord
100
AcDbLayerTableRecord
  2
COTES
 70
     0
 62
   170
  6
CONTINUOUS
370
    13
390
90
  0
LAYER
  5
86
102
{ACAD_XDICTIONARY
360
141BD
102
}
330
2
100
AcDbSymbolTableRecord
100
AcDbLayerTableRecord
  2
3D
 70
     0
 62
    30
  6
CONTINUOUS
370
    13
390
90
  0
LAYER
  5
98
102
{ACAD_XDICTIONARY
360
141BF
102
}
330
2
100
AcDbSymbolTableRecord
100
AcDbLayerTableRecord
  2
TEXT
 70
     0
 62
     7
  6
CONTINUOUS
370
    13
390
90
  0
LAYER
  5
1DF
102
{ACAD_XDICTIONARY
360
1E0
102
}
330
2
100
AcDbSymbolTableRecord
100
AcDbLayerTableRecord
  2
Hidden (ISO)
 70
     0
 62
     9
  6
ACAD_ISO02W100
370
    18
390
90
  0
LAYER
  5
1E1
102
{ACAD_XDICTIONARY
360
1E2
102
}
330
2
100
AcDbSymbolTableRecord
100
AcDbLayerTableRecord
  2
Hidden Narrow (ISO)
 70
     0
 62
     9
  6
CONTINUOUS
370
    18
390
90
  0
LAYER
  5
1E3
102
{ACAD_XDICTIONARY
360
1E4
102
}
330
2
100
AcDbSymbolTableRecord
100
AcDbLayerTableRecord
  2
Visible (ISO)
 70
     0
 62
     7
  6
CONTINUOUS
370
    18
390
90
  0
LAYER
  5
1E5
102
{ACAD_XDICTIONARY
360
1E6
102
}
330
2
100
AcDbSymbolTableRecord
100
AcDbLayerTableRecord
  2
Visible Narrow (ISO)
 70
     0
 62
     7
  6
CONTINUOUS
370
    18
390
90
  0
ENDTAB
  0
TABLE
  2
STYLE
  5
3
330
0
100
AcDbSymbolTable
 70
     2
  0
STYLE
  5
10
330
3
100
AcDbSymbolTableRecord
100
AcDbTextStyleTableRecord
  2
STANDARD
 70
     0
 40
0.0
 41
1.0
 50
0.0
 71
     0
 42
16.83501683501684
  3
ISOCP
  4

  0
STYLE
  5
145CC
330
3
100
AcDbSymbolTableRecord
100
AcDbTextStyleTableRecord
  2
noxifer 2_5 (ISO)
 70
     0
 40
0.0
 41
1.0
 50
0.0
 71
     0
 42
0.2
  3
TAHOMA.TTF
  4

1001
ACAD
1000
Tahoma
1071
      256
  0
ENDTAB
  0
TABLE
  2
VIEW
  5
6
330
0
100
AcDbSymbolTable
 70
     0
  0
ENDTAB
  0
TABLE
  2
UCS
  5
7
330
0
100
AcDbSymbolTable
 70
     0
  0
ENDTAB
  0
TABLE
  2
APPID
  5
9
330
0
100
AcDbSymbolTable
 70
     4
  0
APPID
  5
11
330
9
100
AcDbSymbolTableRecord
100
AcDbRegAppTableRecord
  2
ACAD
 70
     0
  0
APPID
  5
A65F
330
9
100
AcDbSymbolTableRecord
100
AcDbRegAppTableRecord
  2
ACAD_EXEMPT_FROM_CAD_STANDARDS
 70
     0
  0
APPID
  5
141F8
330
9
100
AcDbSymbolTableRecord
100
AcDbRegAppTableRecord
  2
ACAD_MLEADERVER
 70
     0
  0
APPID
  5
2154A
330
9
100
AcDbSymbolTableRecord
100
AcDbRegAppTableRecord
  2
ACAD_PSEXT
 70
     0
  0
ENDTAB
  0
TABLE
  2
DIMSTYLE
  5
A
330
0
100
AcDbSymbolTable
 70
     3
100
AcDbDimStyleTable
 71
     1
340
7D
  0
DIMSTYLE
105
7D
330
A
100
AcDbSymbolTableRecord
100
AcDbDimStyleTableRecord
  2
ISO-25_WS
 70
     0
 40
6.734006734006732
 41
2.5
 42
0.625
 43
3.75
 44
1.25
 73
     0
 74
     0
 77
     1
 78
     8
140
2.5
141
2.5
143
0.0394
147
0.625
171
     4
172
     1
273
     8
274
     4
340
10
  0
DIMSTYLE
105
1446C
330
A
100
AcDbSymbolTableRecord
100
AcDbDimStyleTableRecord
  2
Standard
 70
     0
340
10
  0
DIMSTYLE
105
145CD
330
A
100
AcDbSymbolTableRecord
100
AcDbDimStyleTableRecord
  2
Default (ISO)
 70
     0
 40
3.0
 41
2.5
 42
2.0
 43
5.999999999999999
 44
3.174999999999998
 45
0.00000001
 46
10.0
 73
     0
 74
     0
 77
     1
 78
     8
 79
     2
140
2.5
143
0.03937
146
1.402080059051511
147
0.762
171
     3
172
     1
176
   256
177
   256
178
   256
179
     2
271
     2
272
     2
274
     3
278
    44
340
145CC
371
    -1
372
    -1
  0
ENDTAB
  0
TABLE
  2
BLOCK_RECORD
  5
1
330
0
100
AcDbSymbolTable
 70
     0
  0
BLOCK_RECORD
  5
1A
102
{ACAD_XDICTIONARY
360
154D5
102
}
330
1
100
AcDbSymbolTableRecord
100
AcDbBlockTableRecord
  2
*MODEL_SPACE
340
93
  0
BLOCK_RECORD
  5
17
330
1
100
AcDbSymbolTableRecord
100
AcDbBlockTableRecord
  2
*PAPER_SPACE
340
94
  0
ENDTAB
  0
ENDSEC
  0
SECTION
  2
BLOCKS
  0
BLOCK
  5
1B
330
1A
100
AcDbEntity
  8
0
100
AcDbBlockBegin
  2
*MODEL_SPACE
 70
     0
 10
0.0
 20
0.0
 30
0.0
  3
*MODEL_SPACE
  1

  0
ENDBLK
  5
1C
330
1A
100
AcDbEntity
  8
0
100
AcDbBlockEnd
  0
BLOCK
  5
18
330
17
100
AcDbEntity
 67
     1
  8
0
100
AcDbBlockBegin
  2
*PAPER_SPACE
 70
     0
 10
0.0
 20
0.0
 30
0.0
  3
*PAPER_SPACE
  1

  0
ENDBLK
  5
19
330
17
100
AcDbEntity
 67
     1
  8
0
100
AcDbBlockEnd
  0
ENDSEC
  0
SECTION
  2
ENTITIES
  0
LINE
  5
64DA
330
1A
100
AcDbEntity
  8
0
100
AcDbLine
 10
5576.420756389875
 20
2961.786508347456
 30
0.0
 11
7138.515691974212
 21
2961.786508347456
 31
0.0
  0
LINE
  5
64DE
330
1A
100
AcDbEntity
  8
0
100
AcDbLine
 10
5966.944486061223
 20
2961.786508347456
 30
0.0
 11
5966.944486061223
 21
1912.114174395332
 31
0.0
  0
LINE
  5
64DF
330
1A
100
AcDbEntity
  8
0
100
AcDbLine
 10
5966.944486061223
 20
2961.786508347456
 30
0.0
 11
5966.944486061223
 21
2861.786508347456
 31
0.0
  0
LINE
  5
64E0
330
1A
100
AcDbEntity
  8
0
100
AcDbLine
 10
7138.515691974212
 20
2861.786508347456
 30
0.0
 11
5576.420756389875
 21
2861.786508347456
 31
0.0
  0
LINE
  5
64E1
330
1A
100
AcDbEntity
  8
0
100
AcDbLine
 10
7138.515691974212
 20
2961.786508347456
 30
0.0
 11
7138.515691974212
 21
1912.114174395332
 31
0.0
  0
LINE
  5
64E2
330
1A
100
AcDbEntity
  8
0
100
AcDbLine
 10
7138.515691974212
 20
2961.786508347456
 30
0.0
 11
5576.420756389875
 21
2961.786508347456
 31
0.0
  0
LINE
  5
64E3
330
1A
100
AcDbEntity
  8
0
100
AcDbLine
 10
5576.420756389875
 20
2961.786508347456
 30
0.0
 11
5576.420756389875
 21
2861.786508347456
 31
0.0
  0
LINE
  5
64E4
330
1A
100
AcDbEntity
  8
0
100
AcDbLine
 10
5576.420756389875
 20
2861.786508347456
 30
0.0
 11
5576.420756389875
 21
1912.114174395332
 31
0.0
  0
LINE
  5
64E5
330
1A
100
AcDbEntity
  8
0
100
AcDbLine
 10
5576.420756389875
 20
1912.114174395332
 30
0.0
 11
7138.515691974212
 21
1912.114174395332
 31
0.0
  0
MTEXT
  5
64E6
330
1A
100
AcDbEntity
  8
0
100
AcDbMText
 10
6002.719021339895
 20
2833.383502509656
 30
0.0
 40
15.0
 41
782.3471997944232
 71
     1
 72
     5
  1
Vistas
 73
     1
 44
1.0
1001
ACAD
1000
ACAD_MTEXT_COLUMN_INFO_BEGIN
1070
    75
1070
     2
1070
    79
1070
     0
1070
    76
1070
     1
1070
    78
1070
     0
1070
    48
1040
782.3471997944232
1070
    49
1040
84.1750841750842
1070
    50
1070
     1
1040
0.0
1000
ACAD_MTEXT_COLUMN_INFO_END
1000
MTEXTBEGIN
1070
    73
1070
     1
1070
    44
1040
1.0
1070
    74
1070
     0
1000
MTEXTEND
  0
MTEXT
  5
64E7
330
1A
100
AcDbEntity
  8
0
100
AcDbMText
 10
5609.367818588204
 20
2832.989296710546
 30
0.0
 40
15.0
 41
782.3471997944232
 71
     1
 72
     5
  1
Perspectiva
 73
     1
 44
1.0
1001
ACAD
1000
ACAD_MTEXT_COLUMN_INFO_BEGIN
1070
    75
1070
     2
1070
    79
1070
     0
1070
    76
1070
     1
1070
    78
1070
     0
1070
    48
1040
782.3471997944232
1070
    49
1040
84.1750841750842
1070
    50
1070
     1
1040
0.0
1000
ACAD_MTEXT_COLUMN_INFO_END
1000
MTEXTBEGIN
1070
    73
1070
     1
1070
    44
1040
1.0
1070
    74
1070
     0
1000
MTEXTEND
  0
LINE
  5
64E8
330
1A
100
AcDbEntity
  8
0
100
AcDbLine
 10
5966.944486061223
 20
1912.114174395332
 30
0.0
 11
5966.944486061223
 21
862.4418404432097
 31
0.0
  0
LINE
  5
64E9
330
1A
100
AcDbEntity
  8
0
100
AcDbLine
 10
5966.944486061223
 20
1912.114174395332
 30
0.0
 11
5966.944486061223
 21
1812.114174395332
 31
0.0
  0
LINE
  5
64EA
330
1A
100
AcDbEntity
  8
0
100
AcDbLine
 10
7138.515691974212
 20
1812.114174395332
 30
0.0
 11
5576.420756389875
 21
1812.114174395332
 31
0.0
  0
LINE
  5
64EB
330
1A
100
AcDbEntity
  8
0
100
AcDbLine
 10
7138.515691974212
 20
1912.114174395332
 30
0.0
 11
7138.515691974212
 21
862.4418404432097
 31
0.0
  0
LINE
  5
64EC
330
1A
100
AcDbEntity
  8
0
100
AcDbLine
 10
7138.515691974212
 20
1912.114174395332
 30
0.0
 11
5576.420756389875
 21
1912.114174395332
 31
0.0
  0
LINE
  5
64ED
330
1A
100
AcDbEntity
  8
0
100
AcDbLine
 10
5576.420756389875
 20
1912.114174395332
 30
0.0
 11
5576.420756389875
 21
1812.114174395332
 31
0.0
  0
LINE
  5
64EE
330
1A
100
AcDbEntity
  8
0
100
AcDbLine
 10
5576.420756389875
 20
1812.114174395332
 30
0.0
 11
5576.420756389875
 21
862.4418404432097
 31
0.0
  0
LINE
  5
64EF
330
1A
100
AcDbEntity
  8
0
100
AcDbLine
 10
5576.420756389875
 20
862.4418404432097
 30
0.0
 11
7138.515691974212
 21
862.4418404432097
 31
0.0
  0
MTEXT
  5
64F0
330
1A
100
AcDbEntity
  8
0
100
AcDbMText
 10
5990.096300330407
 20
1873.607436028335
 30
0.0
 40
25.0
 41
782.3471997944232
 71
     1
 72
     5
  1
Descripción familia UPA-CTL
 73
     1
 44
1.0
1001
ACAD
1000
ACAD_MTEXT_COLUMN_INFO_BEGIN
1070
    75
1070
     2
1070
    79
1070
     0
1070
    76
1070
     1
1070
    78
1070
     0
1070
    48
1040
782.3471997944232
1070
    49
1040
84.1750841750842
1070
    50
1070
     1
1040
0.0
1000
ACAD_MTEXT_COLUMN_INFO_END
1000
MTEXTBEGIN
1070
    73
1070
     1
1070
    44
1040
1.0
1070
    74
1070
     0
1000
MTEXTEND
  0
MTEXT
  5
64F1
330
1A
100
AcDbEntity
  8
0
100
AcDbMText
 10
6002.719021339895
 20
1783.711168557533
 30
0.0
 40
15.0
 41
782.3471997944232
 71
     1
 72
     5
  1
Vistas
 73
     1
 44
1.0
1001
ACAD
1000
ACAD_MTEXT_COLUMN_INFO_BEGIN
1070
    75
1070
     2
1070
    79
1070
     0
1070
    76
1070
     1
1070
    78
1070
     0
1070
    48
1040
782.3471997944232
1070
    49
1040
84.1750841750842
1070
    50
1070
     1
1040
0.0
1000
ACAD_MTEXT_COLUMN_INFO_END
1000
MTEXTBEGIN
1070
    73
1070
     1
1070
    44
1040
1.0
1070
    74
1070
     0
1000
MTEXTEND
  0
MTEXT
  5
64F2
330
1A
100
AcDbEntity
  8
0
100
AcDbMText
 10
5609.367818588204
 20
1783.316962758424
 30
0.0
 40
15.0
 41
782.3471997944232
 71
     1
 72
     5
  1
Perspectiva
 73
     1
 44
1.0
1001
ACAD
1000
ACAD_MTEXT_COLUMN_INFO_BEGIN
1070
    75
1070
     2
1070
    79
1070
     0
1070
    76
1070
     1
1070
    78
1070
     0
1070
    48
1040
782.3471997944232
1070
    49
1040
84.1750841750842
1070
    50
1070
     1
1040
0.0
1000
ACAD_MTEXT_COLUMN_INFO_END
1000
MTEXTBEGIN
1070
    73
1070
     1
1070
    44
1040
1.0
1070
    74
1070
     0
1000
MTEXTEND
  0
MTEXT
  5
64F5
330
1A
100
AcDbEntity
  8
0
100
AcDbMText
 10
5607.71520886043
 20
2919.007677824538
 30
0.0
 40
30.0
 41
348.7495265615799
 71
     1
 72
     5
  1
{\H0.83333x;Código}: {\fTahoma|b0|i0|c0|p34;UPA-CTL115}
 73
     1
 44
1.0
1001
ACAD
1000
ACAD_MTEXT_COLUMN_INFO_BEGIN
1070
    75
1070
     2
1070
    79
1070
     0
1070
    76
1070
     1
1070
    78
1070
     0
1070
    48
1040
348.7495265615799
1070
    49
1040
84.1750841750842
1070
    50
1070
     1
1040
0.0
1000
ACAD_MTEXT_COLUMN_INFO_END
1000
MTEXTBEGIN
1070
    73
1070
     1
1070
    44
1040
1.0
1070
    74
1070
     0
1000
MTEXTEND
  0
MTEXT
  5
64F6
330
1A
100
AcDbEntity
  8
0
100
AcDbMText
 10
5599.572570659063
 20
1875.903086346266
 30
0.0
 40
30.0
 41
348.7495265615799
 71
     1
 72
     5
  1
{\H0.83333x;Código}: {\fTahoma|b0|i0|c0|p34;UPA-CTL145}
 73
     1
 44
1.0
1001
ACAD
1000
ACAD_MTEXT_COLUMN_INFO_BEGIN
1070
    75
1070
     2
1070
    79
1070
     0
1070
    76
1070
     1
1070
    78
1070
     0
1070
    48
1040
348.7495265615799
1070
    49
1040
84.1750841750842
1070
    50
1070
     1
1040
0.0
1000
ACAD_MTEXT_COLUMN_INFO_END
1000
MTEXTBEGIN
1070
    73
1070
     1
1070
    44
1040
1.0
1070
    74
1070
     0
1000
MTEXTEND
  0
LINE
  5
64F8
330
1A
100
AcDbEntity
  8
0
100
AcDbLine
 10
5576.420756389875
 20
862.4418404432097
 30
0.0
 11
7138.515691974212
 21
862.4418404432097
 31
0.0
  0
LINE
  5
64F9
330
1A
100
AcDbEntity
  8
0
100
AcDbLine
 10
5966.944486061223
 20
862.4418404432097
 30
0.0
 11
5966.944486061223
 21
-187.2304935089123
 31
0.0
  0
LINE
  5
64FA
330
1A
100
AcDbEntity
  8
0
100
AcDbLine
 10
5966.944486061223
 20
862.4418404432097
 30
0.0
 11
5966.944486061223
 21
762.4418404432097
 31
0.0
  0
LINE
  5
64FB
330
1A
100
AcDbEntity
  8
0
100
AcDbLine
 10
7138.515691974212
 20
762.4418404432097
 30
0.0
 11
5576.420756389875
 21
762.4418404432097
 31
0.0
  0
LINE
  5
64FC
330
1A
100
AcDbEntity
  8
0
100
AcDbLine
 10
7138.515691974212
 20
862.4418404432097
 30
0.0
 11
7138.515691974212
 21
-187.2304935089123
 31
0.0
  0
LINE
  5
64FD
330
1A
100
AcDbEntity
  8
0
100
AcDbLine
 10
7138.515691974212
 20
862.4418404432097
 30
0.0
 11
5576.420756389875
 21
862.4418404432097
 31
0.0
  0
LINE
  5
64FE
330
1A
100
AcDbEntity
  8
0
100
AcDbLine
 10
5576.420756389875
 20
862.4418404432097
 30
0.0
 11
5576.420756389875
 21
762.4418404432097
 31
0.0
  0
LINE
  5
64FF
330
1A
100
AcDbEntity
  8
0
100
AcDbLine
 10
5576.420756389875
 20
762.4418404432097
 30
0.0
 11
5576.420756389875
 21
-187.2304935089123
 31
0.0
  0
LINE
  5
6500
330
1A
100
AcDbEntity
  8
0
100
AcDbLine
 10
5576.420756389875
 20
-187.2304935089123
 30
0.0
 11
7138.515691974212
 21
-187.2304935089123
 31
0.0
  0
MTEXT
  5
6501
330
1A
100
AcDbEntity
  8
0
100
AcDbMText
 10
6002.719021339895
 20
734.0388346054115
 30
0.0
 40
15.0
 41
782.3471997944232
 71
     1
 72
     5
  1
Vistas
 73
     1
 44
1.0
1001
ACAD
1000
ACAD_MTEXT_COLUMN_INFO_BEGIN
1070
    75
1070
     2
1070
    79
1070
     0
1070
    76
1070
     1
1070
    78
1070
     0
1070
    48
1040
782.3471997944232
1070
    49
1040
84.1750841750842
1070
    50
1070
     1
1040
0.0
1000
ACAD_MTEXT_COLUMN_INFO_END
1000
MTEXTBEGIN
1070
    73
1070
     1
1070
    44
1040
1.0
1070
    74
1070
     0
1000
MTEXTEND
  0
MTEXT
  5
6502
330
1A
100
AcDbEntity
  8
0
100
AcDbMText
 10
5609.367818588204
 20
733.6446288063016
 30
0.0
 40
15.0
 41
782.3471997944232
 71
     1
 72
     5
  1
Perspectiva
 73
     1
 44
1.0
1001
ACAD
1000
ACAD_MTEXT_COLUMN_INFO_BEGIN
1070
    75
1070
     2
1070
    79
1070
     0
1070
    76
1070
     1
1070
    78
1070
     0
1070
    48
1040
782.3471997944232
1070
    49
1040
84.1750841750842
1070
    50
1070
     1
1040
0.0
1000
ACAD_MTEXT_COLUMN_INFO_END
1000
MTEXTBEGIN
1070
    73
1070
     1
1070
    44
1040
1.0
1070
    74
1070
     0
1000
MTEXTEND
  0
MTEXT
  5
6503
330
1A
100
AcDbEntity
  8
0
100
AcDbMText
 10
5599.572570659063
 20
816.3265676960907
 30
0.0
 40
30.0
 41
348.7495265615799
 71
     1
 72
     5
  1
{\H0.83333x;Código}: {\fTahoma|b0|i0|c0|p34;UPA-CTL320}
 73
     1
 44
1.0
1001
ACAD
1000
ACAD_MTEXT_COLUMN_INFO_BEGIN
1070
    75
1070
     2
1070
    79
1070
     0
1070
    76
1070
     1
1070
    78
1070
     0
1070
    48
1040
348.7495265615799
1070
    49
1040
84.1750841750842
1070
    50
1070
     1
1040
0.0
1000
ACAD_MTEXT_COLUMN_INFO_END
1000
MTEXTBEGIN
1070
    73
1070
     1
1070
    44
1040
1.0
1070
    74
1070
     0
1000
MTEXTEND
  0
LINE
  5
6504
330
1A
100
AcDbEntity
  8
0
100
AcDbLine
 10
5576.420756389875
 20
-187.2304935089123
 30
0.0
 11
7138.515691974212
 21
-187.2304935089123
 31
0.0
  0
LINE
  5
6505
330
1A
100
AcDbEntity
  8
0
100
AcDbLine
 10
7138.515691974212
 20
-187.2304935089123
 30
0.0
 11
5576.420756389875
 21
-187.2304935089123
 31
0.0
  0
MTEXT
  5
6506
330
1A
100
AcDbEntity
  8
0
100
AcDbMText
 10
5990.096300330407
 20
2923.279769980456
 30
0.0
 40
25.0
 41
782.3471997944232
 71
     1
 72
     5
  1
Descripción familia UPA-CTL
 73
     1
 44
1.0
1001
ACAD
1000
ACAD_MTEXT_COLUMN_INFO_BEGIN
1070
    75
1070
     2
1070
    79
1070
     0
1070
    76
1070
     1
1070
    78
1070
     0
1070
    48
1040
782.3471997944232
1070
    49
1040
84.1750841750842
1070
    50
1070
     1
1040
0.0
1000
ACAD_MTEXT_COLUMN_INFO_END
1000
MTEXTBEGIN
1070
    73
1070
     1
1070
    44
1040
1.0
1070
    74
1070
     0
1000
MTEXTEND
  0
MTEXT
  5
6507
330
1A
100
AcDbEntity
  8
0
100
AcDbMText
 10
5990.096300330407
 20
823.9351020762123
 30
0.0
 40
25.0
 41
782.3471997944232
 71
     1
 72
     5
  1
Descripción familia: UPA-CTL
 73
     1
 44
1.0
1001
ACAD
1000
ACAD_MTEXT_COLUMN_INFO_BEGIN
1070
    75
1070
     2
1070
    79
1070
     0
1070
    76
1070
     1
1070
    78
1070
     0
1070
    48
1040
782.3471997944232
1070
    49
1040
84.1750841750842
1070
    50
1070
     1
1040
0.0
1000
ACAD_MTEXT_COLUMN_INFO_END
1000
MTEXTBEGIN
1070
    73
1070
     1
1070
    44
1040
1.0
1070
    74
1070
     0
1000
MTEXTEND
  0
LINE
  5
14BFD
330
1A
100
AcDbEntity
  8
Visible (ISO)
100
AcDbLine
 10
6195.659349467203
 20
1300.87891417525
 30
0.0
 11
6196.659349467203
 21
1300.87891417525
 31
0.0
  0
LINE
  5
14BFE
330
1A
100
AcDbEntity
  8
Visible (ISO)
100
AcDbLine
 10
6196.659349467203
 20
1292.87891417525
 30
0.0
 11
6195.659349467203
 21
1292.87891417525
 31
0.0
  0
LINE
  5
14BFF
330
1A
100
AcDbEntity
  8
Visible (ISO)
100
AcDbLine
 10
6196.659349467203
 20
1292.87891417525
 30
0.0
 11
6196.659349467203
 21
1300.87891417525
 31
0.0
  0
LINE
  5
14C00
330
1A
100
AcDbEntity
  8
Visible (ISO)
100
AcDbLine
 10
6136.659349467202
 20
1300.87891417525
 30
0.0
 11
6137.659349467203
 21
1300.87891417525
 31
0.0
  0
ARC
  5
14C01
330
1A
100
AcDbEntity
  8
Visible (ISO)
100
AcDbCircle
 10
6195.659349467161
 20
1361.87891417525
 30
0.0
 40
0.9999999999999964
100
AcDbArc
 50
0.0
 51
90.0
  0
ARC
  5
14C02
330
1A
100
AcDbEntity
  8
Visible (ISO)
100
AcDbCircle
 10
6137.659349467162
 20
1361.87891417525
 30
0.0
 40
0.9999999999999964
100
AcDbArc
 50
90.0
 51
180.0
  0
LINE
  5
14C03
330
1A
100
AcDbEntity
  8
Visible (ISO)
100
AcDbLine
 10
6136.659349467202
 20
1300.87891417525
 30
0.0
 11
6136.659349467202
 21
1292.87891417525
 31
0.0
  0
LINE
  5
14C04
330
1A
100
AcDbEntity
  8
Visible (ISO)
100
AcDbLine
 10
6137.659349467203
 20
1292.87891417525
 30
0.0
 11
6136.659349467202
 21
1292.87891417525
 31
0.0
  0
LINE
  5
14C05
330
1A
100
AcDbEntity
  8
Visible (ISO)
100
AcDbLine
 10
6195.659349467203
 20
1300.87891417525
 30
0.0
 11
6137.659349467203
 21
1300.87891417525
 31
0.0
  0
LINE
  5
14C06
330
1A
100
AcDbEntity
  8
Visible (ISO)
100
AcDbLine
 10
6196.659349467164
 20
1351.87891417525
 30
0.0
 11
6196.659349467164
 21
1361.87891417525
 31
0.0
  0
LINE
  5
14C07
330
1A
100
AcDbEntity
  8
Visible (ISO)
100
AcDbLine
 10
6195.659349467161
 20
1362.87891417525
 30
0.0
 11
6137.659349467162
 21
1362.87891417525
 31
0.0
  0
LINE
  5
14C08
330
1A
100
AcDbEntity
  8
Visible (ISO)
100
AcDbLine
 10
6136.659349467162
 20
1361.87891417525
 30
0.0
 11
6136.659349467162
 21
1351.87891417525
 31
0.0
  0
LINE
  5
14C09
330
1A
100
AcDbEntity
  8
Visible (ISO)
100
AcDbLine
 10
6195.659349467203
 20
1292.87891417525
 30
0.0
 11
6137.659349467203
 21
1292.87891417525
 31
0.0
  0
CIRCLE
  5
14C0A
330
1A
100
AcDbEntity
  8
Visible (ISO)
100
AcDbCircle
 10
6166.659349467161
 20
1332.87891417525
 30
0.0
 40
8.5
  0
LINE
  5
14C0B
330
1A
100
AcDbEntity
  8
Hidden (ISO)
100
AcDbLine
 10
6158.159349467196
 20
1292.87891417525
 30
0.0
 11
6158.159349467196
 21
1300.87891417525
 31
0.0
  0
LINE
  5
14C0C
330
1A
100
AcDbEntity
  8
Hidden (ISO)
100
AcDbLine
 10
6175.159349467195
 20
1292.87891417525
 30
0.0
 11
6175.159349467195
 21
1300.87891417525
 31
0.0
  0
LINE
  5
14C0D
330
1A
100
AcDbEntity
  8
Visible (ISO)
100
AcDbLine
 10
6136.659349467163
 20
1351.87891417525
 30
0.0
 11
6131.659349467163
 21
1351.87891417525
 31
0.0
  0
LINE
  5
14C0E
330
1A
100
AcDbEntity
  8
Visible (ISO)
100
AcDbLine
 10
6131.659349467163
 20
1351.87891417525
 30
0.0
 11
6131.659349467197
 21
1304.87891417525
 31
0.0
  0
LINE
  5
14C0F
330
1A
100
AcDbEntity
  8
Visible (ISO)
100
AcDbLine
 10
6136.659349467199
 20
1304.87891417525
 30
0.0
 11
6131.659349467197
 21
1304.87891417525
 31
0.0
  0
LINE
  5
14C10
330
1A
100
AcDbEntity
  8
Visible (ISO)
100
AcDbLine
 10
6136.659349467199
 20
1304.87891417525
 30
0.0
 11
6136.659349467163
 21
1351.87891417525
 31
0.0
  0
LINE
  5
14C11
330
1A
100
AcDbEntity
  8
Visible (ISO)
100
AcDbLine
 10
6131.659349467197
 20
1304.87891417525
 30
0.0
 11
6131.659349467197
 21
1296.87891417525
 31
0.0
  0
LINE
  5
14C12
330
1A
100
AcDbEntity
  8
Visible (ISO)
100
AcDbLine
 10
6136.659349467199
 20
1296.87891417525
 30
0.0
 11
6131.659349467197
 21
1296.87891417525
 31
0.0
  0
LINE
  5
14C13
330
1A
100
AcDbEntity
  8
Visible (ISO)
100
AcDbLine
 10
6136.659349467199
 20
1300.87891417525
 30
0.0
 11
6136.659349467199
 21
1304.87891417525
 31
0.0
  0
LINE
  5
14C14
330
1A
100
AcDbEntity
  8
Hidden (ISO)
100
AcDbLine
 10
6136.659349467162
 20
1316.87891417525
 30
0.0
 11
6131.65934946716
 21
1316.87891417525
 31
0.0
  0
LINE
  5
14C15
330
1A
100
AcDbEntity
  8
Visible (ISO)
100
AcDbLine
 10
6201.659349467163
 20
1351.87891417525
 30
0.0
 11
6196.659349467164
 21
1351.87891417525
 31
0.0
  0
LINE
  5
14C16
330
1A
100
AcDbEntity
  8
Visible (ISO)
100
AcDbLine
 10
6196.659349467164
 20
1351.87891417525
 30
0.0
 11
6196.659349467196
 21
1304.87891417525
 31
0.0
  0
LINE
  5
14C17
330
1A
100
AcDbEntity
  8
Visible (ISO)
100
AcDbLine
 10
6201.659349467197
 20
1304.87891417525
 30
0.0
 11
6196.659349467196
 21
1304.87891417525
 31
0.0
  0
LINE
  5
14C18
330
1A
100
AcDbEntity
  8
Visible (ISO)
100
AcDbLine
 10
6201.659349467197
 20
1304.87891417525
 30
0.0
 11
6201.659349467163
 21
1351.87891417525
 31
0.0
  0
LINE
  5
14C19
330
1A
100
AcDbEntity
  8
Visible (ISO)
100
AcDbLine
 10
6196.659349467196
 20
1304.87891417525
 30
0.0
 11
6196.659349467196
 21
1300.87891417525
 31
0.0
  0
LINE
  5
14C1A
330
1A
100
AcDbEntity
  8
Visible (ISO)
100
AcDbLine
 10
6201.659349467197
 20
1296.87891417525
 30
0.0
 11
6196.659349467196
 21
1296.87891417525
 31
0.0
  0
LINE
  5
14C1B
330
1A
100
AcDbEntity
  8
Visible (ISO)
100
AcDbLine
 10
6201.659349467197
 20
1296.87891417525
 30
0.0
 11
6201.659349467197
 21
1304.87891417525
 31
0.0
  0
LINE
  5
14C1C
330
1A
100
AcDbEntity
  8
Hidden (ISO)
100
AcDbLine
 10
6201.659349467162
 20
1316.87891417525
 30
0.0
 11
6196.659349467161
 21
1316.87891417525
 31
0.0
  0
LINE
  5
14C1D
330
1A
100
AcDbEntity
  8
Visible (ISO)
100
AcDbLine
 10
6430.17434633129
 20
1300.87891417525
 30
0.0
 11
6456.302005905759
 21
1300.87891417525
 31
0.0
  0
LINE
  5
14C1E
330
1A
100
AcDbEntity
  8
Visible (ISO)
100
AcDbLine
 10
6538.17434633129
 20
1300.87891417525
 30
0.0
 11
6558.17434633129
 21
1300.87891417525
 31
0.0
  0
LINE
  5
14C1F
330
1A
100
AcDbEntity
  8
Visible (ISO)
100
AcDbLine
 10
6422.17434633129
 20
1361.87891417525
 30
0.0
 11
6422.17434633129
 21
1351.87891417525
 31
0.0
  0
LINE
  5
14C20
330
1A
100
AcDbEntity
  8
Visible (ISO)
100
AcDbLine
 10
6422.17434633129
 20
1315.200342746678
 30
0.0
 11
6422.17434633129
 21
1308.87891417525
 31
0.0
  0
LINE
  5
14C21
330
1A
100
AcDbEntity
  8
Visible (ISO)
100
AcDbLine
 10
6414.17434633129
 20
1308.87891417525
 30
0.0
 11
6414.17434633129
 21
1361.87891417525
 31
0.0
  0
LINE
  5
14C22
330
1A
100
AcDbEntity
  8
Visible (ISO)
100
AcDbLine
 10
6558.17434633129
 20
1292.87891417525
 30
0.0
 11
6430.17434633129
 21
1292.87891417525
 31
0.0
  0
LINE
  5
14C23
330
1A
100
AcDbEntity
  8
Hidden (ISO)
100
AcDbLine
 10
6456.302005905759
 20
1300.87891417525
 30
0.0
 11
6538.17434633129
 21
1300.87891417525
 31
0.0
  0
LINE
  5
14C24
330
1A
100
AcDbEntity
  8
Hidden (ISO)
100
AcDbLine
 10
6422.17434633129
 20
1351.87891417525
 30
0.0
 11
6422.17434633129
 21
1315.200342746678
 31
0.0
  0
LINE
  5
14C25
330
1A
100
AcDbEntity
  8
Visible (ISO)
100
AcDbLine
 10
6558.17434633129
 20
1300.87891417525
 30
0.0
 11
6559.174346331291
 21
1300.87891417525
 31
0.0
  0
LINE
  5
14C26
330
1A
100
AcDbEntity
  8
Visible (ISO)
100
AcDbLine
 10
6422.17434633129
 20
1362.87891417525
 30
0.0
 11
6422.17434633129
 21
1361.87891417525
 31
0.0
  0
LINE
  5
14C27
330
1A
100
AcDbEntity
  8
Visible (ISO)
100
AcDbLine
 10
6422.17434633129
 20
1362.87891417525
 30
0.0
 11
6414.17434633129
 21
1362.87891417525
 31
0.0
  0
LINE
  5
14C28
330
1A
100
AcDbEntity
  8
Visible (ISO)
100
AcDbLine
 10
6414.17434633129
 20
1361.87891417525
 30
0.0
 11
6414.17434633129
 21
1362.87891417525
 31
0.0
  0
LINE
  5
14C29
330
1A
100
AcDbEntity
  8
Visible (ISO)
100
AcDbLine
 10
6559.174346331291
 20
1292.87891417525
 30
0.0
 11
6558.17434633129
 21
1292.87891417525
 31
0.0
  0
LINE
  5
14C2A
330
1A
100
AcDbEntity
  8
Visible (ISO)
100
AcDbLine
 10
6559.174346331291
 20
1292.87891417525
 30
0.0
 11
6559.174346331291
 21
1300.87891417525
 31
0.0
  0
ARC
  5
14C2B
330
1A
100
AcDbEntity
  8
Visible (ISO)
100
AcDbCircle
 10
6430.17434633129
 20
1308.87891417525
 30
0.0
 40
16.0
100
AcDbArc
 50
180.0
 51
270.0
  0
ARC
  5
14C2C
330
1A
100
AcDbEntity
  8
Visible (ISO)
100
AcDbCircle
 10
6430.17434633129
 20
1308.87891417525
 30
0.0
 40
7.999999999999992
100
AcDbArc
 50
180.0
 51
270.0
  0
LINE
  5
14C2D
330
1A
100
AcDbEntity
  8
Hidden (ISO)
100
AcDbLine
 10
6455.674346331291
 20
1292.87891417525
 30
0.0
 11
6455.674346331291
 21
1300.87891417525
 31
0.0
  0
LINE
  5
14C2E
330
1A
100
AcDbEntity
  8
Hidden (ISO)
100
AcDbLine
 10
6472.67434633129
 20
1292.87891417525
 30
0.0
 11
6472.67434633129
 21
1300.87891417525
 31
0.0
  0
LINE
  5
14C2F
330
1A
100
AcDbEntity
  8
Hidden (ISO)
100
AcDbLine
 10
6490.674346331292
 20
1292.87891417525
 30
0.0
 11
6490.674346331292
 21
1300.87891417525
 31
0.0
  0
LINE
  5
14C30
330
1A
100
AcDbEntity
  8
Hidden (ISO)
100
AcDbLine
 10
6507.674346331291
 20
1292.87891417525
 30
0.0
 11
6507.674346331291
 21
1300.87891417525
 31
0.0
  0
LINE
  5
14C31
330
1A
100
AcDbEntity
  8
Hidden (ISO)
100
AcDbLine
 10
6525.67434633129
 20
1292.87891417525
 30
0.0
 11
6525.67434633129
 21
1300.87891417525
 31
0.0
  0
LINE
  5
14C32
330
1A
100
AcDbEntity
  8
Hidden (ISO)
100
AcDbLine
 10
6542.67434633129
 20
1292.87891417525
 30
0.0
 11
6542.67434633129
 21
1300.87891417525
 31
0.0
  0
LINE
  5
14C33
330
1A
100
AcDbEntity
  8
Hidden (ISO)
100
AcDbLine
 10
6414.17434633129
 20
1341.37891417525
 30
0.0
 11
6422.17434633129
 21
1341.37891417525
 31
0.0
  0
LINE
  5
14C34
330
1A
100
AcDbEntity
  8
Hidden (ISO)
100
AcDbLine
 10
6414.17434633129
 20
1324.37891417525
 30
0.0
 11
6422.17434633129
 21
1324.37891417525
 31
0.0
  0
LINE
  5
14C35
330
1A
100
AcDbEntity
  8
Visible (ISO)
100
AcDbLine
 10
6418.174346331291
 20
1351.87891417525
 30
0.0
 11
6426.174346331291
 21
1351.87891417525
 31
0.0
  0
LINE
  5
14C36
330
1A
100
AcDbEntity
  8
Visible (ISO)
100
AcDbLine
 10
6426.174346331291
 20
1351.87891417525
 30
0.0
 11
6538.17434633129
 21
1304.87891417525
 31
0.0
  0
LINE
  5
14C37
330
1A
100
AcDbEntity
  8
Visible (ISO)
100
AcDbLine
 10
6538.17434633129
 20
1304.87891417525
 30
0.0
 11
6538.17434633129
 21
1296.87891417525
 31
0.0
  0
LINE
  5
14C38
330
1A
100
AcDbEntity
  8
Visible (ISO)
100
AcDbLine
 10
6538.17434633129
 20
1296.87891417525
 30
0.0
 11
6465.833920799376
 21
1296.87891417525
 31
0.0
  0
LINE
  5
14C39
330
1A
100
AcDbEntity
  8
Visible (ISO)
100
AcDbLine
 10
6465.833920799376
 20
1296.87891417525
 30
0.0
 11
6418.174346331291
 21
1316.87891417525
 31
0.0
  0
LINE
  5
14C3A
330
1A
100
AcDbEntity
  8
Visible (ISO)
100
AcDbLine
 10
6418.174346331291
 20
1316.87891417525
 30
0.0
 11
6418.174346331291
 21
1351.87891417525
 31
0.0
  0
CIRCLE
  5
14C3B
330
1A
100
AcDbEntity
  8
Visible (ISO)
100
AcDbCircle
 10
6464.17434633129
 20
1099.371695408327
 30
0.0
 40
8.5
  0
CIRCLE
  5
14C3C
330
1A
100
AcDbEntity
  8
Visible (ISO)
100
AcDbCircle
 10
6499.17434633129
 20
1099.371695408327
 30
0.0
 40
8.5
  0
CIRCLE
  5
14C3D
330
1A
100
AcDbEntity
  8
Visible (ISO)
100
AcDbCircle
 10
6534.17434633129
 20
1099.371695408327
 30
0.0
 40
8.5
  0
ARC
  5
14C3E
330
1A
100
AcDbEntity
  8
Visible (ISO)
100
AcDbCircle
 10
6558.17434633129
 20
1128.371695408327
 30
0.0
 40
1.0
100
AcDbArc
 50
0.0
 51
90.0
  0
ARC
  5
14C3F
330
1A
100
AcDbEntity
  8
Visible (ISO)
100
AcDbCircle
 10
6558.17434633129
 20
1070.371695408327
 30
0.0
 40
0.9999999999999964
100
AcDbArc
 50
270.0
 51
0.0
  0
LINE
  5
14C40
330
1A
100
AcDbEntity
  8
Visible (ISO)
100
AcDbLine
 10
6422.17434633129
 20
1129.371695408345
 30
0.0
 11
6414.17434633129
 21
1129.371695408345
 31
0.0
  0
LINE
  5
14C41
330
1A
100
AcDbEntity
  8
Visible (ISO)
100
AcDbLine
 10
6414.17434633129
 20
1128.371695408346
 30
0.0
 11
6414.17434633129
 21
1129.371695408345
 31
0.0
  0
LINE
  5
14C42
330
1A
100
AcDbEntity
  8
Visible (ISO)
100
AcDbLine
 10
6422.17434633129
 20
1129.371695408345
 30
0.0
 11
6422.17434633129
 21
1128.371695408346
 31
0.0
  0
LINE
  5
14C43
330
1A
100
AcDbEntity
  8
Visible (ISO)
100
AcDbLine
 10
6422.17434633129
 20
1070.371695408345
 30
0.0
 11
6422.17434633129
 21
1069.371695408345
 31
0.0
  0
LINE
  5
14C44
330
1A
100
AcDbEntity
  8
Visible (ISO)
100
AcDbLine
 10
6414.17434633129
 20
1069.371695408345
 30
0.0
 11
6414.17434633129
 21
1070.371695408345
 31
0.0
  0
LINE
  5
14C45
330
1A
100
AcDbEntity
  8
Visible (ISO)
100
AcDbLine
 10
6414.17434633129
 20
1069.371695408345
 30
0.0
 11
6422.17434633129
 21
1069.371695408345
 31
0.0
  0
LINE
  5
14C46
330
1A
100
AcDbEntity
  8
Visible (ISO)
100
AcDbLine
 10
6558.17434633129
 20
1129.371695408327
 30
0.0
 11
6538.17434633129
 21
1129.371695408327
 31
0.0
  0
LINE
  5
14C47
330
1A
100
AcDbEntity
  8
Visible (ISO)
100
AcDbLine
 10
6538.17434633129
 20
1069.371695408327
 30
0.0
 11
6558.17434633129
 21
1069.371695408327
 31
0.0
  0
LINE
  5
14C48
330
1A
100
AcDbEntity
  8
Visible (ISO)
100
AcDbLine
 10
6559.174346331291
 20
1128.371695408327
 30
0.0
 11
6559.174346331291
 21
1070.371695408327
 31
0.0
  0
LINE
  5
14C49
330
1A
100
AcDbEntity
  8
Visible (ISO)
100
AcDbLine
 10
6422.17434633129
 20
1128.371695408346
 30
0.0
 11
6422.17434633129
 21
1070.371695408345
 31
0.0
  0
LINE
  5
14C4A
330
1A
100
AcDbEntity
  8
Visible (ISO)
100
AcDbLine
 10
6414.17434633129
 20
1128.371695408346
 30
0.0
 11
6414.17434633129
 21
1070.371695408345
 31
0.0
  0
LINE
  5
14C4B
330
1A
100
AcDbEntity
  8
Hidden (ISO)
100
AcDbLine
 10
6414.17434633129
 20
1107.871695408336
 30
0.0
 11
6422.17434633129
 21
1107.871695408336
 31
0.0
  0
LINE
  5
14C4C
330
1A
100
AcDbEntity
  8
Hidden (ISO)
100
AcDbLine
 10
6414.17434633129
 20
1090.871695408336
 30
0.0
 11
6422.17434633129
 21
1090.871695408336
 31
0.0
  0
LINE
  5
14C4D
330
1A
100
AcDbEntity
  8
Visible (ISO)
100
AcDbLine
 10
6418.174346331291
 20
1064.371695408342
 30
0.0
 11
6426.174346331291
 21
1064.371695408342
 31
0.0
  0
LINE
  5
14C4E
330
1A
100
AcDbEntity
  8
Visible (ISO)
100
AcDbLine
 10
6426.174346331291
 20
1069.371695408342
 30
0.0
 11
6426.174346331291
 21
1064.371695408342
 31
0.0
  0
LINE
  5
14C4F
330
1A
100
AcDbEntity
  8
Visible (ISO)
100
AcDbLine
 10
6426.174346331291
 20
1069.371695408342
 30
0.0
 11
6422.17434633129
 21
1069.371695408342
 31
0.0
  0
LINE
  5
14C50
330
1A
100
AcDbEntity
  8
Visible (ISO)
100
AcDbLine
 10
6418.174346331291
 20
1069.371695408342
 30
0.0
 11
6418.174346331291
 21
1064.371695408342
 31
0.0
  0
LINE
  5
14C51
330
1A
100
AcDbEntity
  8
Visible (ISO)
100
AcDbLine
 10
6426.174346331291
 20
1064.371695408342
 30
0.0
 11
6538.17434633129
 21
1064.371695408328
 31
0.0
  0
LINE
  5
14C52
330
1A
100
AcDbEntity
  8
Visible (ISO)
100
AcDbLine
 10
6538.17434633129
 20
1069.371695408328
 30
0.0
 11
6538.17434633129
 21
1064.371695408328
 31
0.0
  0
LINE
  5
14C53
330
1A
100
AcDbEntity
  8
Visible (ISO)
100
AcDbLine
 10
6538.17434633129
 20
1069.371695408328
 30
0.0
 11
6426.174346331291
 21
1069.371695408342
 31
0.0
  0
LINE
  5
14C54
330
1A
100
AcDbEntity
  8
Hidden (ISO)
100
AcDbLine
 10
6465.833920799376
 20
1069.371695408326
 30
0.0
 11
6465.833920799376
 21
1064.371695408325
 31
0.0
  0
LINE
  5
14C55
330
1A
100
AcDbEntity
  8
Visible (ISO)
100
AcDbLine
 10
6422.17434633129
 20
1129.371695408342
 30
0.0
 11
6426.174346331291
 21
1129.371695408342
 31
0.0
  0
LINE
  5
14C56
330
1A
100
AcDbEntity
  8
Visible (ISO)
100
AcDbLine
 10
6426.174346331291
 20
1134.371695408342
 30
0.0
 11
6426.174346331291
 21
1129.371695408342
 31
0.0
  0
LINE
  5
14C57
330
1A
100
AcDbEntity
  8
Visible (ISO)
100
AcDbLine
 10
6426.174346331291
 20
1134.371695408342
 30
0.0
 11
6418.174346331291
 21
1134.371695408342
 31
0.0
  0
LINE
  5
14C58
330
1A
100
AcDbEntity
  8
Visible (ISO)
100
AcDbLine
 10
6418.174346331291
 20
1134.371695408342
 30
0.0
 11
6418.174346331291
 21
1129.371695408342
 31
0.0
  0
LINE
  5
14C59
330
1A
100
AcDbEntity
  8
Visible (ISO)
100
AcDbLine
 10
6426.174346331291
 20
1129.371695408342
 30
0.0
 11
6538.17434633129
 21
1129.371695408328
 31
0.0
  0
LINE
  5
14C5A
330
1A
100
AcDbEntity
  8
Visible (ISO)
100
AcDbLine
 10
6538.17434633129
 20
1134.371695408328
 30
0.0
 11
6538.17434633129
 21
1129.371695408328
 31
0.0
  0
LINE
  5
14C5B
330
1A
100
AcDbEntity
  8
Visible (ISO)
100
AcDbLine
 10
6538.17434633129
 20
1134.371695408328
 30
0.0
 11
6426.174346331291
 21
1134.371695408342
 31
0.0
  0
LINE
  5
14C5C
330
1A
100
AcDbEntity
  8
Hidden (ISO)
100
AcDbLine
 10
6465.833920799376
 20
1134.371695408326
 30
0.0
 11
6465.833920799376
 21
1129.371695408326
 31
0.0
  0
LINE
  5
14C5D
330
1A
100
AcDbEntity
  8
Hidden (ISO)
100
AcDbLine
 10
6794.053362817928
 20
1300.87891417525
 30
0.0
 11
6854.053362817928
 21
1300.87891417525
 31
0.0
  0
LINE
  5
14C5E
330
1A
100
AcDbEntity
  8
Visible (ISO)
100
AcDbLine
 10
6794.053362817928
 20
1292.87891417525
 30
0.0
 11
6794.053362817924
 21
1308.87891417525
 31
0.0
  0
LINE
  5
14C5F
330
1A
100
AcDbEntity
  8
Visible (ISO)
100
AcDbLine
 10
6854.053362817928
 20
1292.87891417525
 30
0.0
 11
6854.053362817923
 21
1308.87891417525
 31
0.0
  0
LINE
  5
14C60
330
1A
100
AcDbEntity
  8
Visible (ISO)
100
AcDbLine
 10
6854.053362817928
 20
1292.87891417525
 30
0.0
 11
6794.053362817928
 21
1292.87891417525
 31
0.0
  0
LINE
  5
14C61
330
1A
100
AcDbEntity
  8
Visible (ISO)
100
AcDbLine
 10
6794.053362817924
 20
1361.87891417525
 30
0.0
 11
6794.053362817924
 21
1308.87891417525
 31
0.0
  0
LINE
  5
14C62
330
1A
100
AcDbEntity
  8
Visible (ISO)
100
AcDbLine
 10
6854.053362817923
 20
1308.87891417525
 30
0.0
 11
6854.053362817923
 21
1361.87891417525
 31
0.0
  0
LINE
  5
14C63
330
1A
100
AcDbEntity
  8
Visible (ISO)
100
AcDbLine
 10
6795.053362817924
 20
1362.87891417525
 30
0.0
 11
6853.053362817924
 21
1362.87891417525
 31
0.0
  0
ARC
  5
14C64
330
1A
100
AcDbEntity
  8
Visible (ISO)
100
AcDbCircle
 10
6795.053362817924
 20
1361.87891417525
 30
0.0
 40
0.9999999999999964
100
AcDbArc
 50
90.0
 51
180.0
  0
ARC
  5
14C65
330
1A
100
AcDbEntity
  8
Visible (ISO)
100
AcDbCircle
 10
6853.053362817924
 20
1361.87891417525
 30
0.0
 40
0.9999999999999964
100
AcDbArc
 50
0.0
 51
90.0
  0
CIRCLE
  5
14C66
330
1A
100
AcDbEntity
  8
Visible (ISO)
100
AcDbCircle
 10
6824.053362817924
 20
1332.87891417525
 30
0.0
 40
8.500000000000001
  0
LINE
  5
14C67
330
1A
100
AcDbEntity
  8
Hidden (ISO)
100
AcDbLine
 10
6815.553362817938
 20
1292.87891417525
 30
0.0
 11
6815.553362817938
 21
1300.87891417525
 31
0.0
  0
LINE
  5
14C68
330
1A
100
AcDbEntity
  8
Hidden (ISO)
100
AcDbLine
 10
6832.55336281794
 20
1292.87891417525
 30
0.0
 11
6832.55336281794
 21
1300.87891417525
 31
0.0
  0
LINE
  5
14C69
330
1A
100
AcDbEntity
  8
Visible (ISO)
100
AcDbLine
 10
6854.053362817925
 20
1351.87891417525
 30
0.0
 11
6859.053362817924
 21
1351.87891417525
 31
0.0
  0
LINE
  5
14C6A
330
1A
100
AcDbEntity
  8
Visible (ISO)
100
AcDbLine
 10
6854.053362817939
 20
1296.87891417525
 30
0.0
 11
6859.053362817938
 21
1296.87891417525
 31
0.0
  0
LINE
  5
14C6B
330
1A
100
AcDbEntity
  8
Visible (ISO)
100
AcDbLine
 10
6859.053362817938
 20
1296.87891417525
 30
0.0
 11
6859.053362817924
 21
1316.87891417525
 31
0.0
  0
LINE
  5
14C6C
330
1A
100
AcDbEntity
  8
Visible (ISO)
100
AcDbLine
 10
6854.053362817925
 20
1316.87891417525
 30
0.0
 11
6859.053362817924
 21
1316.87891417525
 31
0.0
  0
LINE
  5
14C6D
330
1A
100
AcDbEntity
  8
Visible (ISO)
100
AcDbLine
 10
6859.053362817924
 20
1316.87891417525
 30
0.0
 11
6859.053362817924
 21
1351.87891417525
 31
0.0
  0
LINE
  5
14C6E
330
1A
100
AcDbEntity
  8
Hidden (ISO)
100
AcDbLine
 10
6854.05336281796
 20
1304.87891417525
 30
0.0
 11
6859.053362817959
 21
1304.87891417525
 31
0.0
  0
LINE
  5
14C6F
330
1A
100
AcDbEntity
  8
Visible (ISO)
100
AcDbLine
 10
6789.053362817924
 20
1351.87891417525
 30
0.0
 11
6794.053362817925
 21
1351.87891417525
 31
0.0
  0
LINE
  5
14C70
330
1A
100
AcDbEntity
  8
Visible (ISO)
100
AcDbLine
 10
6789.053362817938
 20
1296.87891417525
 30
0.0
 11
6794.053362817938
 21
1296.87891417525
 31
0.0
  0
LINE
  5
14C71
330
1A
100
AcDbEntity
  8
Visible (ISO)
100
AcDbLine
 10
6789.053362817924
 20
1316.87891417525
 30
0.0
 11
6794.053362817925
 21
1316.87891417525
 31
0.0
  0
LINE
  5
14C72
330
1A
100
AcDbEntity
  8
Visible (ISO)
100
AcDbLine
 10
6789.053362817924
 20
1316.87891417525
 30
0.0
 11
6789.053362817938
 21
1296.87891417525
 31
0.0
  0
LINE
  5
14C73
330
1A
100
AcDbEntity
  8
Visible (ISO)
100
AcDbLine
 10
6789.053362817924
 20
1351.87891417525
 30
0.0
 11
6789.053362817924
 21
1316.87891417525
 31
0.0
  0
LINE
  5
14C74
330
1A
100
AcDbEntity
  8
Hidden (ISO)
100
AcDbLine
 10
6789.053362817959
 20
1304.87891417525
 30
0.0
 11
6794.053362817961
 21
1304.87891417525
 31
0.0
  0
CIRCLE
  5
14C75
330
1A
100
AcDbEntity
  8
Visible (ISO)
100
AcDbCircle
 10
6464.17434633129
 20
1561.184002960731
 30
0.0
 40
8.5
  0
CIRCLE
  5
14C76
330
1A
100
AcDbEntity
  8
Visible (ISO)
100
AcDbCircle
 10
6499.17434633129
 20
1561.184002960731
 30
0.0
 40
8.5
  0
CIRCLE
  5
14C77
330
1A
100
AcDbEntity
  8
Visible (ISO)
100
AcDbCircle
 10
6534.17434633129
 20
1561.184002960731
 30
0.0
 40
8.5
  0
ARC
  5
14C78
330
1A
100
AcDbEntity
  8
Visible (ISO)
100
AcDbCircle
 10
6558.17434633129
 20
1532.184002960731
 30
0.0
 40
0.9999999999999964
100
AcDbArc
 50
270.0
 51
0.0
  0
ARC
  5
14C79
330
1A
100
AcDbEntity
  8
Visible (ISO)
100
AcDbCircle
 10
6558.17434633129
 20
1590.184002960731
 30
0.0
 40
0.9999999999999964
100
AcDbArc
 50
0.0
 51
90.0
  0
LINE
  5
14C7A
330
1A
100
AcDbEntity
  8
Visible (ISO)
100
AcDbLine
 10
6430.17434633129
 20
1531.184002960731
 30
0.0
 11
6558.17434633129
 21
1531.184002960731
 31
0.0
  0
LINE
  5
14C7B
330
1A
100
AcDbEntity
  8
Visible (ISO)
100
AcDbLine
 10
6558.17434633129
 20
1591.184002960731
 30
0.0
 11
6430.17434633129
 21
1591.184002960731
 31
0.0
  0
LINE
  5
14C7C
330
1A
100
AcDbEntity
  8
Visible (ISO)
100
AcDbLine
 10
6559.174346331291
 20
1532.184002960731
 30
0.0
 11
6559.174346331291
 21
1590.184002960731
 31
0.0
  0
LINE
  5
14C7D
330
1A
100
AcDbEntity
  8
Visible (ISO)
100
AcDbLine
 10
6430.17434633129
 20
1531.184002960731
 30
0.0
 11
6414.17434633129
 21
1531.184002960736
 31
0.0
  0
LINE
  5
14C7E
330
1A
100
AcDbEntity
  8
Visible (ISO)
100
AcDbLine
 10
6430.17434633129
 20
1591.184002960731
 30
0.0
 11
6414.17434633129
 21
1591.184002960736
 31
0.0
  0
LINE
  5
14C7F
330
1A
100
AcDbEntity
  8
Visible (ISO)
100
AcDbLine
 10
6414.17434633129
 20
1531.184002960736
 30
0.0
 11
6414.17434633129
 21
1591.184002960736
 31
0.0
  0
LINE
  5
14C80
330
1A
100
AcDbEntity
  8
Hidden (ISO)
100
AcDbLine
 10
6422.17434633129
 20
1591.184002960736
 30
0.0
 11
6422.17434633129
 21
1531.184002960736
 31
0.0
  0
LINE
  5
14C81
330
1A
100
AcDbEntity
  8
Hidden (ISO)
100
AcDbLine
 10
6414.17434633129
 20
1569.684002960743
 30
0.0
 11
6422.17434633129
 21
1569.684002960743
 31
0.0
  0
LINE
  5
14C82
330
1A
100
AcDbEntity
  8
Hidden (ISO)
100
AcDbLine
 10
6414.17434633129
 20
1552.684002960743
 30
0.0
 11
6422.17434633129
 21
1552.684002960743
 31
0.0
  0
LINE
  5
14C83
330
1A
100
AcDbEntity
  8
Hidden (ISO)
100
AcDbLine
 10
6426.174346331291
 20
1591.184002960749
 30
0.0
 11
6426.174346331291
 21
1596.184002960749
 31
0.0
  0
LINE
  5
14C84
330
1A
100
AcDbEntity
  8
Visible (ISO)
100
AcDbLine
 10
6538.17434633129
 20
1591.184002960732
 30
0.0
 11
6538.17434633129
 21
1596.184002960732
 31
0.0
  0
LINE
  5
14C85
330
1A
100
AcDbEntity
  8
Visible (ISO)
100
AcDbLine
 10
6538.17434633129
 20
1596.184002960732
 30
0.0
 11
6465.833920799376
 21
1596.184002960732
 31
0.0
  0
LINE
  5
14C86
330
1A
100
AcDbEntity
  8
Visible (ISO)
100
AcDbLine
 10
6465.833920799376
 20
1591.184002960732
 30
0.0
 11
6465.833920799376
 21
1596.184002960732
 31
0.0
  0
LINE
  5
14C87
330
1A
100
AcDbEntity
  8
Visible (ISO)
100
AcDbLine
 10
6465.833920799376
 20
1596.184002960732
 30
0.0
 11
6418.174346331291
 21
1596.184002960738
 31
0.0
  0
LINE
  5
14C88
330
1A
100
AcDbEntity
  8
Visible (ISO)
100
AcDbLine
 10
6418.174346331291
 20
1591.184002960738
 30
0.0
 11
6418.174346331291
 21
1596.184002960738
 31
0.0
  0
LINE
  5
14C89
330
1A
100
AcDbEntity
  8
Hidden (ISO)
100
AcDbLine
 10
6426.174346331291
 20
1526.184002960748
 30
0.0
 11
6426.174346331291
 21
1531.184002960749
 31
0.0
  0
LINE
  5
14C8A
330
1A
100
AcDbEntity
  8
Visible (ISO)
100
AcDbLine
 10
6538.17434633129
 20
1526.184002960732
 30
0.0
 11
6538.17434633129
 21
1531.184002960732
 31
0.0
  0
LINE
  5
14C8B
330
1A
100
AcDbEntity
  8
Visible (ISO)
100
AcDbLine
 10
6465.833920799376
 20
1526.184002960732
 30
0.0
 11
6465.833920799376
 21
1531.184002960732
 31
0.0
  0
LINE
  5
14C8C
330
1A
100
AcDbEntity
  8
Visible (ISO)
100
AcDbLine
 10
6465.833920799376
 20
1526.184002960732
 30
0.0
 11
6538.17434633129
 21
1526.184002960732
 31
0.0
  0
LINE
  5
14C8D
330
1A
100
AcDbEntity
  8
Visible (ISO)
100
AcDbLine
 10
6418.174346331291
 20
1526.184002960738
 30
0.0
 11
6418.174346331291
 21
1531.184002960738
 31
0.0
  0
LINE
  5
14C8E
330
1A
100
AcDbEntity
  8
Visible (ISO)
100
AcDbLine
 10
6418.174346331291
 20
1526.184002960738
 30
0.0
 11
6465.833920799376
 21
1526.184002960732
 31
0.0
  0
ELLIPSE
  5
14C8F
330
1A
100
AcDbEntity
  8
Visible (ISO)
100
AcDbEllipse
 10
5735.814924496148
 20
1392.604526217862
 30
0.0
 11
-8.500000000000012
 21
-0.0000000000005079
 31
0.0
210
0.0
220
0.0
230
1.0
 40
0.5758617009853114
 41
3.873232981763695
 42
5.163401013877283
  0
ELLIPSE
  5
14C90
330
1A
100
AcDbEntity
  8
Visible (ISO)
100
AcDbEllipse
 10
5735.814924496148
 20
1399.144903216602
 30
0.0
 11
8.5
 21
-0.000000000000506
 31
0.0
210
0.0
220
0.0
230
1.0
 40
0.5758617009853118
 41
4.577149038380433
 42
8.983710105178136
  0
ELLIPSE
  5
14C91
330
1A
100
AcDbEntity
  8
Visible (ISO)
100
AcDbEllipse
 10
5760.563661837679
 20
1378.352676235132
 30
0.0
 11
-8.499999999999991
 21
-0.0000000000005068
 31
0.0
210
0.0
220
0.0
230
1.0
 40
0.5758617009853113
 41
3.873232981763698
 42
5.551544979005141
  0
ELLIPSE
  5
14C92
330
1A
100
AcDbEntity
  8
Visible (ISO)
100
AcDbEllipse
 10
5760.563661837679
 20
1384.893053233873
 30
0.0
 11
-8.5
 21
0.0000000000005029
 31
0.0
210
0.0
220
0.0
230
1.0
 40
0.5758617009853118
 41
0.0
 42
6.283185307179584
  0
ELLIPSE
  5
14C93
330
1A
100
AcDbEntity
  8
Visible (ISO)
100
AcDbEllipse
 10
5785.312399179214
 20
1364.100826252403
 30
0.0
 11
-8.500000000000008
 21
-0.0000000000005088
 31
0.0
210
0.0
220
0.0
230
1.0
 40
0.5758617009853115
 41
3.873232981763695
 42
5.551544979005135
  0
ELLIPSE
  5
14C94
330
1A
100
AcDbEntity
  8
Visible (ISO)
100
AcDbEllipse
 10
5785.312399179214
 20
1370.641203251143
 30
0.0
 11
-8.5
 21
0.0000000000005029
 31
0.0
210
0.0
220
0.0
230
1.0
 40
0.5758617009853118
 41
0.0
 42
6.283185307179584
  0
ELLIPSE
  5
14C95
330
1A
100
AcDbEntity
  8
Visible (ISO)
100
AcDbEllipse
 10
5822.789058582101
 20
1372.677181820108
 30
0.0
 11
1.0
 21
-0.0000000000000001
 31
0.0
210
0.0
220
0.0
230
1.0
 40
0.5758617009853119
 41
5.49778714378228
 42
7.068583470577157
  0
LINE
  5
14C96
330
1A
100
AcDbEntity
  8
Visible Narrow (ISO)
100
AcDbLine
 10
5823.496165363287
 20
1372.269986106316
 30
0.0
 11
5823.496165363287
 21
1365.729609107576
 31
0.0
  0
ELLIPSE
  5
14C97
330
1A
100
AcDbEntity
  8
Visible (ISO)
100
AcDbEllipse
 10
5822.789058582101
 20
1366.136804821368
 30
0.0
 11
0.9999999999999607
 21
-0.0000000000000001
 31
0.0
210
0.0
220
0.0
230
1.0
 40
0.5758617009853119
 41
5.497787143782243
 42
6.283185307179584
  0
ELLIPSE
  5
14C98
330
1A
100
AcDbEntity
  8
Visible (ISO)
100
AcDbEllipse
 10
5781.776865273286
 20
1349.059830420149
 30
0.0
 11
-0.9999999999999962
 21
0.0000000000000595
 31
0.0
210
0.0
220
0.0
230
1.0
 40
0.5758617009853121
 41
0.7853981633978329
 42
2.356194490192738
  0
ELLIPSE
  5
14C99
330
1A
100
AcDbEntity
  8
Visible (ISO)
100
AcDbEllipse
 10
5720.965682091222
 20
1481.183739221591
 30
0.0
 11
0.4990322115841816
 21
0.8665834361453017
 31
0.0
210
0.0
220
0.0
230
1.0
 40
0.578093115915639
 41
0.0
 42
0.7834644549744203
  0
LINE
  5
14C9A
330
1A
100
AcDbEntity
  8
Visible Narrow (ISO)
100
AcDbLine
 10
5720.965682091222
 20
1482.001286346433
 30
0.0
 11
5726.622536340716
 21
1478.743720636095
 31
0.0
  0
ELLIPSE
  5
14C9B
330
1A
100
AcDbEntity
  8
Visible (ISO)
100
AcDbEllipse
 10
5726.622536340716
 20
1477.926173511252
 30
0.0
 11
0.4990322115841805
 21
0.8665834361452999
 31
0.0
210
0.0
220
0.0
230
1.0
 40
0.578093115915639
 41
5.495853435359136
 42
7.066649762154002
  0
ELLIPSE
  5
14C9C
330
1A
100
AcDbEntity
  8
Visible (ISO)
100
AcDbEllipse
 10
5685.610343031902
 20
1454.308822111293
 30
0.0
 11
0.4990322115842324
 21
0.8665834361452699
 31
0.0
210
0.0
220
0.0
230
1.0
 40
0.578093115915639
 41
0.7834644549746495
 42
2.354260781769556
  0
LINE
  5
14C9D
330
1A
100
AcDbEntity
  8
Visible Narrow (ISO)
100
AcDbLine
 10
5685.610343031902
 20
1455.126369236135
 30
0.0
 11
5679.953488782409
 21
1458.383934946474
 31
0.0
  0
ELLIPSE
  5
14C9E
330
1A
100
AcDbEntity
  8
Visible (ISO)
100
AcDbEllipse
 10
5679.953488782409
 20
1457.566387821632
 30
0.0
 11
-0.4990322115841293
 21
-0.8665834361453304
 31
0.0
210
0.0
220
0.0
230
1.0
 40
0.578093115915639
 41
3.92505710856397
 42
5.495853435358831
  0
LINE
  5
14C9F
330
1A
100
AcDbEntity
  8
Visible Narrow (ISO)
100
AcDbLine
 10
5679.24638200122
 20
1457.159192107839
 30
0.0
 11
5684.903236250715
 21
1453.901626397501
 31
0.0
  0
LINE
  5
14CA0
330
1A
100
AcDbEntity
  8
Visible Narrow (ISO)
100
AcDbLine
 10
5781.0697584921
 20
1348.652634706357
 30
0.0
 11
5781.0697584921
 21
1342.112257707616
 31
0.0
  0
ELLIPSE
  5
14CA1
330
1A
100
AcDbEntity
  8
Visible (ISO)
100
AcDbEllipse
 10
5781.776865273286
 20
1342.519453421409
 30
0.0
 11
0.9999999999999962
 21
0.0000000000000595
 31
0.0
210
0.0
220
0.0
230
1.0
 40
0.5758617009853121
 41
3.926990816987117
 42
5.497787143782021
  0
LINE
  5
14CA2
330
1A
100
AcDbEntity
  8
Visible Narrow (ISO)
100
AcDbLine
 10
5782.483972054471
 20
1342.112257707616
 30
0.0
 11
5782.483972054471
 21
1348.652634706357
 31
0.0
  0
LINE
  5
14CA3
330
1A
100
AcDbEntity
  8
Visible (ISO)
100
AcDbLine
 10
5823.7890585821
 20
1366.136804821368
 30
0.0
 11
5823.7890585821
 21
1372.677181820108
 31
0.0
  0
LINE
  5
14CA4
330
1A
100
AcDbEntity
  8
Visible (ISO)
100
AcDbLine
 10
5727.121568552298
 20
1478.792756947397
 30
0.0
 11
5721.464714302806
 21
1482.050322657736
 31
0.0
  0
LINE
  5
14CA5
330
1A
100
AcDbEntity
  8
Visible (ISO)
100
AcDbLine
 10
5823.496165363287
 20
1373.084377533901
 30
0.0
 11
5732.986497371395
 21
1425.205428899312
 31
0.0
  0
LINE
  5
14CA6
330
1A
100
AcDbEntity
  8
Visible (ISO)
100
AcDbLine
 10
5690.560090500207
 20
1400.773686071768
 30
0.0
 11
5697.107020319193
 21
1397.003559929977
 31
0.0
  0
LINE
  5
14CA7
330
1A
100
AcDbEntity
  8
Visible (ISO)
100
AcDbLine
 10
5766.927622868365
 20
1356.796548982203
 30
0.0
 11
5781.0697584921
 21
1348.652634706357
 31
0.0
  0
LINE
  5
14CA8
330
1A
100
AcDbEntity
  8
Visible (ISO)
100
AcDbLine
 10
5823.496165363287
 20
1372.269986106316
 30
0.0
 11
5782.483972054471
 21
1348.652634706357
 31
0.0
  0
LINE
  5
14CA9
330
1A
100
AcDbEntity
  8
Visible (ISO)
100
AcDbLine
 10
5727.329643121901
 20
1435.00337160839
 30
0.0
 11
5727.329643121901
 21
1478.333369225045
 31
0.0
  0
LINE
  5
14CAA
330
1A
100
AcDbEntity
  8
Visible (ISO)
100
AcDbLine
 10
5726.622536340716
 20
1478.743720636095
 30
0.0
 11
5685.610343031902
 21
1455.126369236135
 31
0.0
  0
LINE
  5
14CAB
330
1A
100
AcDbEntity
  8
Visible (ISO)
100
AcDbLine
 10
5684.903236250715
 20
1453.901626397501
 30
0.0
 11
5684.903236250715
 21
1445.726155149075
 31
0.0
  0
LINE
  5
14CAC
330
1A
100
AcDbEntity
  8
Visible (ISO)
100
AcDbLine
 10
5679.24638200122
 20
1413.829194491185
 30
0.0
 11
5679.24638200122
 21
1415.954536540685
 31
0.0
  0
LINE
  5
14CAD
330
1A
100
AcDbEntity
  8
Visible (ISO)
100
AcDbLine
 10
5679.24638200122
 20
1445.726155149074
 30
0.0
 11
5679.24638200122
 21
1457.159192107839
 31
0.0
  0
LINE
  5
14CAE
330
1A
100
AcDbEntity
  8
Visible (ISO)
100
AcDbLine
 10
5781.0697584921
 20
1342.112257707616
 30
0.0
 11
5764.088235829973
 21
1351.891266233147
 31
0.0
  0
LINE
  5
14CAF
330
1A
100
AcDbEntity
  8
Visible (ISO)
100
AcDbLine
 10
5710.587183637134
 20
1382.70047315341
 30
0.0
 11
5690.560090500207
 21
1394.233309073027
 31
0.0
  0
LINE
  5
14CB0
330
1A
100
AcDbEntity
  8
Visible (ISO)
100
AcDbLine
 10
5823.496165363287
 20
1365.729609107576
 30
0.0
 11
5782.483972054471
 21
1342.112257707616
 31
0.0
  0
LINE
  5
14CB1
330
1A
100
AcDbEntity
  8
Visible (ISO)
100
AcDbLine
 10
5720.965682091222
 20
1482.001286346433
 30
0.0
 11
5679.953488782409
 21
1458.383934946474
 31
0.0
  0
LINE
  5
14CB2
330
1A
100
AcDbEntity
  8
Visible Narrow (ISO)
100
AcDbLine
 10
5732.986497371395
 20
1425.205428899312
 30
0.0
 11
5715.19346939787
 21
1414.959105544795
 31
0.0
  0
LINE
  5
14CB3
330
1A
100
AcDbEntity
  8
Visible Narrow (ISO)
100
AcDbLine
 10
5692.500622721417
 20
1401.89116425749
 30
0.0
 11
5690.560090500207
 21
1400.773686071768
 31
0.0
  0
ELLIPSE
  5
14CB4
330
1A
100
AcDbEntity
  8
Visible (ISO)
100
AcDbEllipse
 10
5732.986497371395
 20
1431.745805898052
 30
0.0
 11
3.992257692675647
 21
-6.932667489161152
 31
0.0
210
0.0
220
0.0
230
1.0
 40
0.5780931159158106
 41
3.928924525409886
 42
5.499720852204784
  0
LINE
  5
14CB5
330
1A
100
AcDbEntity
  8
Visible Narrow (ISO)
100
AcDbLine
 10
5707.217759785091
 20
1423.421708260033
 30
0.0
 11
5727.329643121901
 21
1435.00337160839
 31
0.0
  0
ELLIPSE
  5
14CB6
330
1A
100
AcDbEntity
  8
Visible (ISO)
100
AcDbEllipse
 10
5690.560090500207
 20
1407.314063070508
 30
0.0
 11
7.984515385351302
 21
-13.86533497832232
 31
0.0
210
0.0
220
0.0
230
1.0
 40
0.5780931159158106
 41
3.928924525409886
 42
5.49972085220478
  0
ELLIPSE
  5
14CB7
330
1A
100
AcDbEntity
  8
Visible (ISO)
100
AcDbEllipse
 10
5690.560090500207
 20
1407.314063070508
 30
0.0
 11
3.992257692675643
 21
-6.932667489161147
 31
0.0
210
0.0
220
0.0
230
1.0
 40
0.5780931159158106
 41
4.025725976632366
 42
5.499720852204807
  0
ELLIPSE
  5
14CB8
330
1A
100
AcDbEntity
  8
Visible (ISO)
100
AcDbEllipse
 10
5706.116439686309
 20
1442.408631190839
 30
0.0
 11
-4.241773798465549
 21
-7.365959207235077
 31
0.0
210
0.0
220
0.0
230
1.0
 40
0.578093115915639
 41
0.0
 42
6.283185307179584
  0
ELLIPSE
  5
14CB9
330
1A
100
AcDbEntity
  8
Visible (ISO)
100
AcDbEllipse
 10
5700.459585436815
 20
1445.666196901177
 30
0.0
 11
4.241773798465106
 21
7.365959207235331
 31
0.0
210
0.0
220
0.0
230
1.0
 40
0.578093115915639
 41
3.868054710051326
 42
5.5567232507175
  0
LINE
  5
14CBA
330
1A
100
AcDbEntity
  8
Visible (ISO)
100
AcDbLine
 10
5678.539275220037
 20
1445.318959435283
 30
0.0
 11
5684.19612946953
 21
1442.061393724944
 31
0.0
  0
LINE
  5
14CBB
330
1A
100
AcDbEntity
  8
Visible (ISO)
100
AcDbLine
 10
5687.731663375462
 20
1444.097372293907
 30
0.0
 11
5684.19612946953
 21
1442.061393724944
 31
0.0
  0
LINE
  5
14CBC
330
1A
100
AcDbEntity
  8
Visible (ISO)
100
AcDbLine
 10
5687.731663375462
 20
1444.097372293907
 30
0.0
 11
5682.074809125968
 21
1447.354938004245
 31
0.0
  0
LINE
  5
14CBD
330
1A
100
AcDbEntity
  8
Visible (ISO)
100
AcDbLine
 10
5682.074809125968
 20
1447.354938004245
 30
0.0
 11
5678.539275220037
 21
1445.318959435283
 31
0.0
  0
LINE
  5
14CBE
330
1A
100
AcDbEntity
  8
Visible (ISO)
100
AcDbLine
 10
5684.19612946953
 20
1442.061393724944
 30
0.0
 11
5763.392088962435
 21
1358.030758912611
 31
0.0
  0
LINE
  5
14CBF
330
1A
100
AcDbEntity
  8
Visible (ISO)
100
AcDbLine
 10
5766.927622868365
 20
1360.066737481572
 30
0.0
 11
5763.392088962435
 21
1358.03075891261
 31
0.0
  0
LINE
  5
14CC0
330
1A
100
AcDbEntity
  8
Visible (ISO)
100
AcDbLine
 10
5766.927622868365
 20
1360.066737481572
 30
0.0
 11
5687.731663375462
 21
1444.097372293907
 31
0.0
  0
LINE
  5
14CC1
330
1A
100
AcDbEntity
  8
Visible (ISO)
100
AcDbLine
 10
5763.392088962435
 20
1358.03075891261
 30
0.0
 11
5763.392088962435
 21
1351.49038191387
 31
0.0
  0
LINE
  5
14CC2
330
1A
100
AcDbEntity
  8
Visible (ISO)
100
AcDbLine
 10
5766.927622868365
 20
1353.526360482832
 30
0.0
 11
5763.392088962435
 21
1351.49038191387
 31
0.0
  0
LINE
  5
14CC3
330
1A
100
AcDbEntity
  8
Visible (ISO)
100
AcDbLine
 10
5766.927622868365
 20
1353.526360482832
 30
0.0
 11
5766.927622868365
 21
1360.066737481572
 31
0.0
  0
LINE
  5
14CC4
330
1A
100
AcDbEntity
  8
Visible (ISO)
100
AcDbLine
 10
5763.392088962435
 20
1351.49038191387
 30
0.0
 11
5712.239683514889
 21
1380.947093124375
 31
0.0
  0
LINE
  5
14CC5
330
1A
100
AcDbEntity
  8
Visible (ISO)
100
AcDbLine
 10
5712.239683514889
 20
1380.947093124375
 30
0.0
 11
5678.539275220037
 21
1416.704810065794
 31
0.0
  0
LINE
  5
14CC6
330
1A
100
AcDbEntity
  8
Visible (ISO)
100
AcDbLine
 10
5678.539275220037
 20
1416.704810065794
 30
0.0
 11
5678.539275220037
 21
1445.318959435283
 31
0.0
  0
LINE
  5
14CC7
330
1A
100
AcDbEntity
  8
Visible (ISO)
100
AcDbLine
 10
5727.329643121901
 20
1470.157897976619
 30
0.0
 11
5730.158070246648
 21
1468.52911512145
 31
0.0
  0
LINE
  5
14CC8
330
1A
100
AcDbEntity
  8
Visible (ISO)
100
AcDbLine
 10
5733.693604152581
 20
1470.565093690412
 30
0.0
 11
5730.158070246648
 21
1468.52911512145
 31
0.0
  0
LINE
  5
14CC9
330
1A
100
AcDbEntity
  8
Visible (ISO)
100
AcDbLine
 10
5733.693604152581
 20
1470.565093690412
 30
0.0
 11
5728.036749903087
 21
1473.82265940075
 31
0.0
  0
LINE
  5
14CCA
330
1A
100
AcDbEntity
  8
Visible (ISO)
100
AcDbLine
 10
5728.036749903087
 20
1473.82265940075
 30
0.0
 11
5727.329643121901
 21
1473.415463686958
 31
0.0
  0
LINE
  5
14CCB
330
1A
100
AcDbEntity
  8
Visible (ISO)
100
AcDbLine
 10
5730.158070246648
 20
1468.52911512145
 30
0.0
 11
5809.354029739555
 21
1384.498480309116
 31
0.0
  0
LINE
  5
14CCC
330
1A
100
AcDbEntity
  8
Visible (ISO)
100
AcDbLine
 10
5812.889563645486
 20
1386.534458878078
 30
0.0
 11
5809.354029739555
 21
1384.498480309116
 31
0.0
  0
LINE
  5
14CCD
330
1A
100
AcDbEntity
  8
Visible (ISO)
100
AcDbLine
 10
5812.889563645486
 20
1386.534458878078
 30
0.0
 11
5733.693604152581
 21
1470.565093690412
 31
0.0
  0
LINE
  5
14CCE
330
1A
100
AcDbEntity
  8
Visible (ISO)
100
AcDbLine
 10
5809.354029739555
 20
1384.498480309116
 30
0.0
 11
5809.354029739555
 21
1381.228291809746
 31
0.0
  0
LINE
  5
14CCF
330
1A
100
AcDbEntity
  8
Visible (ISO)
100
AcDbLine
 10
5812.889563645486
 20
1379.994081879338
 30
0.0
 11
5812.193416777946
 21
1379.593197560061
 31
0.0
  0
LINE
  5
14CD0
330
1A
100
AcDbEntity
  8
Visible (ISO)
100
AcDbLine
 10
5812.889563645486
 20
1379.994081879338
 30
0.0
 11
5812.889563645486
 21
1386.534458878078
 31
0.0
  0
LINE
  5
14CD1
330
1A
100
AcDbEntity
  8
Visible (ISO)
100
AcDbLine
 10
5751.461542633037
 20
1414.566357909165
 30
0.0
 11
5727.329643121901
 21
1440.171437361859
 31
0.0
  0
LINE
  5
14DAD
330
1A
100
AcDbEntity
  8
Visible (ISO)
100
AcDbLine
 10
6400.482032336768
 20
2380.521370553017
 30
0.0
 11
6420.482032336767
 21
2380.521370553017
 31
0.0
  0
LINE
  5
14DAE
330
1A
100
AcDbEntity
  8
Visible (ISO)
100
AcDbLine
 10
6488.482032336766
 20
2380.521370553017
 30
0.0
 11
6498.482032336767
 21
2380.521370553017
 31
0.0
  0
LINE
  5
14DAF
330
1A
100
AcDbEntity
  8
Visible (ISO)
100
AcDbLine
 10
6392.482032336768
 20
2441.521370553017
 30
0.0
 11
6392.482032336768
 21
2431.521370553017
 31
0.0
  0
LINE
  5
14DB0
330
1A
100
AcDbEntity
  8
Visible (ISO)
100
AcDbLine
 10
6392.482032336768
 20
2394.521370553017
 30
0.0
 11
6392.482032336768
 21
2388.521370553016
 31
0.0
  0
LINE
  5
14DB1
330
1A
100
AcDbEntity
  8
Visible (ISO)
100
AcDbLine
 10
6384.482032336768
 20
2388.521370553016
 30
0.0
 11
6384.482032336768
 21
2441.521370553017
 31
0.0
  0
LINE
  5
14DB2
330
1A
100
AcDbEntity
  8
Visible (ISO)
100
AcDbLine
 10
6498.482032336767
 20
2372.521370553016
 30
0.0
 11
6400.482032336768
 21
2372.521370553016
 31
0.0
  0
LINE
  5
14DB3
330
1A
100
AcDbEntity
  8
Hidden (ISO)
100
AcDbLine
 10
6420.482032336767
 20
2380.521370553017
 30
0.0
 11
6488.482032336766
 21
2380.521370553017
 31
0.0
  0
LINE
  5
14DB4
330
1A
100
AcDbEntity
  8
Hidden (ISO)
100
AcDbLine
 10
6392.482032336768
 20
2431.521370553017
 30
0.0
 11
6392.482032336768
 21
2394.521370553017
 31
0.0
  0
LINE
  5
14DB5
330
1A
100
AcDbEntity
  8
Visible (ISO)
100
AcDbLine
 10
6498.482032336767
 20
2380.521370553017
 30
0.0
 11
6499.482032336766
 21
2380.521370553017
 31
0.0
  0
LINE
  5
14DB6
330
1A
100
AcDbEntity
  8
Visible (ISO)
100
AcDbLine
 10
6392.482032336768
 20
2442.521370553017
 30
0.0
 11
6392.482032336768
 21
2441.521370553017
 31
0.0
  0
LINE
  5
14DB7
330
1A
100
AcDbEntity
  8
Visible (ISO)
100
AcDbLine
 10
6392.482032336768
 20
2442.521370553017
 30
0.0
 11
6384.482032336768
 21
2442.521370553017
 31
0.0
  0
LINE
  5
14DB8
330
1A
100
AcDbEntity
  8
Visible (ISO)
100
AcDbLine
 10
6384.482032336768
 20
2441.521370553017
 30
0.0
 11
6384.482032336768
 21
2442.521370553017
 31
0.0
  0
LINE
  5
14DB9
330
1A
100
AcDbEntity
  8
Visible (ISO)
100
AcDbLine
 10
6499.482032336766
 20
2372.521370553016
 30
0.0
 11
6498.482032336767
 21
2372.521370553016
 31
0.0
  0
LINE
  5
14DBA
330
1A
100
AcDbEntity
  8
Visible (ISO)
100
AcDbLine
 10
6499.482032336766
 20
2372.521370553016
 30
0.0
 11
6499.482032336766
 21
2380.521370553017
 31
0.0
  0
ARC
  5
14DBB
330
1A
100
AcDbEntity
  8
Visible (ISO)
100
AcDbCircle
 10
6400.482032336768
 20
2388.521370553016
 30
0.0
 40
16.0
100
AcDbArc
 50
180.0
 51
270.0
  0
ARC
  5
14DBC
330
1A
100
AcDbEntity
  8
Visible (ISO)
100
AcDbCircle
 10
6400.482032336768
 20
2388.521370553016
 30
0.0
 40
7.999999999999992
100
AcDbArc
 50
180.0
 51
270.0
  0
LINE
  5
14DBD
330
1A
100
AcDbEntity
  8
Hidden (ISO)
100
AcDbLine
 10
6430.982032336768
 20
2372.521370553016
 30
0.0
 11
6430.982032336768
 21
2380.521370553017
 31
0.0
  0
LINE
  5
14DBE
330
1A
100
AcDbEntity
  8
Hidden (ISO)
100
AcDbLine
 10
6447.982032336766
 20
2372.521370553016
 30
0.0
 11
6447.982032336766
 21
2380.521370553017
 31
0.0
  0
LINE
  5
14DBF
330
1A
100
AcDbEntity
  8
Hidden (ISO)
100
AcDbLine
 10
6465.982032336768
 20
2372.521370553016
 30
0.0
 11
6465.982032336768
 21
2380.521370553017
 31
0.0
  0
LINE
  5
14DC0
330
1A
100
AcDbEntity
  8
Hidden (ISO)
100
AcDbLine
 10
6482.982032336767
 20
2372.521370553016
 30
0.0
 11
6482.982032336767
 21
2380.521370553017
 31
0.0
  0
LINE
  5
14DC1
330
1A
100
AcDbEntity
  8
Hidden (ISO)
100
AcDbLine
 10
6384.482032336768
 20
2421.021370553017
 30
0.0
 11
6392.482032336768
 21
2421.021370553017
 31
0.0
  0
LINE
  5
14DC2
330
1A
100
AcDbEntity
  8
Hidden (ISO)
100
AcDbLine
 10
6384.482032336768
 20
2404.021370553017
 30
0.0
 11
6392.482032336768
 21
2404.021370553017
 31
0.0
  0
LINE
  5
14DC3
330
1A
100
AcDbEntity
  8
Visible (ISO)
100
AcDbLine
 10
6388.482032336767
 20
2431.521370553017
 30
0.0
 11
6396.74441154926
 21
2431.521370553017
 31
0.0
  0
LINE
  5
14DC4
330
1A
100
AcDbEntity
  8
Visible (ISO)
100
AcDbLine
 10
6396.74441154926
 20
2431.521370553017
 30
0.0
 11
6488.482032336766
 21
2385.652560159263
 31
0.0
  0
LINE
  5
14DC5
330
1A
100
AcDbEntity
  8
Visible (ISO)
100
AcDbLine
 10
6488.482032336766
 20
2385.652560159263
 30
0.0
 11
6488.482032336766
 21
2376.521370553017
 31
0.0
  0
LINE
  5
14DC6
330
1A
100
AcDbEntity
  8
Visible (ISO)
100
AcDbLine
 10
6488.482032336766
 20
2376.521370553017
 30
0.0
 11
6428.482032336766
 21
2376.521370553017
 31
0.0
  0
LINE
  5
14DC7
330
1A
100
AcDbEntity
  8
Visible (ISO)
100
AcDbLine
 10
6428.482032336766
 20
2376.521370553017
 30
0.0
 11
6388.482032336767
 21
2396.521370553017
 31
0.0
  0
LINE
  5
14DC8
330
1A
100
AcDbEntity
  8
Visible (ISO)
100
AcDbLine
 10
6388.482032336767
 20
2396.521370553017
 30
0.0
 11
6388.482032336767
 21
2431.521370553017
 31
0.0
  0
CIRCLE
  5
14DC9
330
1A
100
AcDbEntity
  8
Visible (ISO)
100
AcDbCircle
 10
6439.482032336766
 20
2670.681468664004
 30
0.0
 40
8.5
  0
CIRCLE
  5
14DCA
330
1A
100
AcDbEntity
  8
Visible (ISO)
100
AcDbCircle
 10
6474.482032336766
 20
2670.681468664004
 30
0.0
 40
8.5
  0
ARC
  5
14DCB
330
1A
100
AcDbEntity
  8
Visible (ISO)
100
AcDbCircle
 10
6498.482032336767
 20
2641.681468664004
 30
0.0
 40
0.9999999999999964
100
AcDbArc
 50
270.0
 51
0.0
  0
ARC
  5
14DCC
330
1A
100
AcDbEntity
  8
Visible (ISO)
100
AcDbCircle
 10
6498.482032336767
 20
2699.681468664004
 30
0.0
 40
0.9999999999999964
100
AcDbArc
 50
0.0
 51
90.0
  0
LINE
  5
14DCD
330
1A
100
AcDbEntity
  8
Visible (ISO)
100
AcDbLine
 10
6400.482032336768
 20
2640.681468664003
 30
0.0
 11
6498.482032336767
 21
2640.681468664003
 31
0.0
  0
LINE
  5
14DCE
330
1A
100
AcDbEntity
  8
Visible (ISO)
100
AcDbLine
 10
6498.482032336767
 20
2700.681468664003
 30
0.0
 11
6400.482032336768
 21
2700.681468664003
 31
0.0
  0
LINE
  5
14DCF
330
1A
100
AcDbEntity
  8
Visible (ISO)
100
AcDbLine
 10
6499.482032336766
 20
2641.681468664004
 30
0.0
 11
6499.482032336766
 21
2699.681468664004
 31
0.0
  0
LINE
  5
14DD0
330
1A
100
AcDbEntity
  8
Visible (ISO)
100
AcDbLine
 10
6400.482032336768
 20
2640.681468664003
 30
0.0
 11
6384.482032336768
 21
2640.681468664008
 31
0.0
  0
LINE
  5
14DD1
330
1A
100
AcDbEntity
  8
Visible (ISO)
100
AcDbLine
 10
6400.482032336768
 20
2700.681468664003
 30
0.0
 11
6384.482032336768
 21
2700.681468664008
 31
0.0
  0
LINE
  5
14DD2
330
1A
100
AcDbEntity
  8
Visible (ISO)
100
AcDbLine
 10
6384.482032336768
 20
2640.681468664008
 30
0.0
 11
6384.482032336768
 21
2700.681468664008
 31
0.0
  0
LINE
  5
14DD3
330
1A
100
AcDbEntity
  8
Hidden (ISO)
100
AcDbLine
 10
6392.482032336768
 20
2700.681468664008
 30
0.0
 11
6392.482032336768
 21
2640.681468664008
 31
0.0
  0
LINE
  5
14DD4
330
1A
100
AcDbEntity
  8
Hidden (ISO)
100
AcDbLine
 10
6384.482032336768
 20
2679.181468664015
 30
0.0
 11
6392.482032336768
 21
2679.181468664015
 31
0.0
  0
LINE
  5
14DD5
330
1A
100
AcDbEntity
  8
Hidden (ISO)
100
AcDbLine
 10
6384.482032336768
 20
2662.181468664015
 30
0.0
 11
6392.482032336768
 21
2662.181468664015
 31
0.0
  0
LINE
  5
14DD6
330
1A
100
AcDbEntity
  8
Hidden (ISO)
100
AcDbLine
 10
6396.74441154926
 20
2700.68146866402
 30
0.0
 11
6396.74441154926
 21
2705.68146866402
 31
0.0
  0
LINE
  5
14DD7
330
1A
100
AcDbEntity
  8
Visible (ISO)
100
AcDbLine
 10
6488.482032336766
 20
2700.681468664004
 30
0.0
 11
6488.482032336766
 21
2705.681468664004
 31
0.0
  0
LINE
  5
14DD8
330
1A
100
AcDbEntity
  8
Visible (ISO)
100
AcDbLine
 10
6488.482032336766
 20
2705.681468664004
 30
0.0
 11
6428.482032336766
 21
2705.681468664004
 31
0.0
  0
LINE
  5
14DD9
330
1A
100
AcDbEntity
  8
Visible (ISO)
100
AcDbLine
 10
6428.482032336766
 20
2700.681468664004
 30
0.0
 11
6428.482032336766
 21
2705.681468664004
 31
0.0
  0
LINE
  5
14DDA
330
1A
100
AcDbEntity
  8
Visible (ISO)
100
AcDbLine
 10
6428.482032336766
 20
2705.681468664004
 30
0.0
 11
6388.482032336767
 21
2705.68146866401
 31
0.0
  0
LINE
  5
14DDB
330
1A
100
AcDbEntity
  8
Visible (ISO)
100
AcDbLine
 10
6388.482032336767
 20
2700.68146866401
 30
0.0
 11
6388.482032336767
 21
2705.68146866401
 31
0.0
  0
LINE
  5
14DDC
330
1A
100
AcDbEntity
  8
Hidden (ISO)
100
AcDbLine
 10
6396.74441154926
 20
2635.681468664019
 30
0.0
 11
6396.74441154926
 21
2640.68146866402
 31
0.0
  0
LINE
  5
14DDD
330
1A
100
AcDbEntity
  8
Visible (ISO)
100
AcDbLine
 10
6488.482032336766
 20
2635.681468664004
 30
0.0
 11
6488.482032336766
 21
2640.681468664004
 31
0.0
  0
LINE
  5
14DDE
330
1A
100
AcDbEntity
  8
Visible (ISO)
100
AcDbLine
 10
6428.482032336766
 20
2635.681468664004
 30
0.0
 11
6428.482032336766
 21
2640.681468664004
 31
0.0
  0
LINE
  5
14DDF
330
1A
100
AcDbEntity
  8
Visible (ISO)
100
AcDbLine
 10
6428.482032336766
 20
2635.681468664004
 30
0.0
 11
6488.482032336766
 21
2635.681468664004
 31
0.0
  0
LINE
  5
14DE0
330
1A
100
AcDbEntity
  8
Visible (ISO)
100
AcDbLine
 10
6388.482032336767
 20
2635.68146866401
 30
0.0
 11
6388.482032336767
 21
2640.68146866401
 31
0.0
  0
LINE
  5
14DE1
330
1A
100
AcDbEntity
  8
Visible (ISO)
100
AcDbLine
 10
6388.482032336767
 20
2635.68146866401
 30
0.0
 11
6428.482032336766
 21
2635.681468664004
 31
0.0
  0
CIRCLE
  5
14DE2
330
1A
100
AcDbEntity
  8
Visible (ISO)
100
AcDbCircle
 10
6439.482032336766
 20
2163.291003883989
 30
0.0
 40
8.5
  0
CIRCLE
  5
14DE3
330
1A
100
AcDbEntity
  8
Visible (ISO)
100
AcDbCircle
 10
6474.482032336766
 20
2163.291003883989
 30
0.0
 40
8.5
  0
ARC
  5
14DE4
330
1A
100
AcDbEntity
  8
Visible (ISO)
100
AcDbCircle
 10
6498.482032336767
 20
2192.291003883989
 30
0.0
 40
1.0
100
AcDbArc
 50
0.0
 51
90.0
  0
ARC
  5
14DE5
330
1A
100
AcDbEntity
  8
Visible (ISO)
100
AcDbCircle
 10
6498.482032336767
 20
2134.291003883989
 30
0.0
 40
0.9999999999999964
100
AcDbArc
 50
270.0
 51
0.0
  0
LINE
  5
14DE6
330
1A
100
AcDbEntity
  8
Visible (ISO)
100
AcDbLine
 10
6392.482032336768
 20
2193.291003884008
 30
0.0
 11
6384.482032336768
 21
2193.291003884008
 31
0.0
  0
LINE
  5
14DE7
330
1A
100
AcDbEntity
  8
Visible (ISO)
100
AcDbLine
 10
6384.482032336768
 20
2192.291003884007
 30
0.0
 11
6384.482032336768
 21
2193.291003884008
 31
0.0
  0
LINE
  5
14DE8
330
1A
100
AcDbEntity
  8
Visible (ISO)
100
AcDbLine
 10
6392.482032336768
 20
2193.291003884008
 30
0.0
 11
6392.482032336768
 21
2192.291003884007
 31
0.0
  0
LINE
  5
14DE9
330
1A
100
AcDbEntity
  8
Visible (ISO)
100
AcDbLine
 10
6392.482032336768
 20
2134.291003884007
 30
0.0
 11
6392.482032336768
 21
2133.291003884007
 31
0.0
  0
LINE
  5
14DEA
330
1A
100
AcDbEntity
  8
Visible (ISO)
100
AcDbLine
 10
6384.482032336768
 20
2133.291003884007
 30
0.0
 11
6384.482032336768
 21
2134.291003884007
 31
0.0
  0
LINE
  5
14DEB
330
1A
100
AcDbEntity
  8
Visible (ISO)
100
AcDbLine
 10
6384.482032336768
 20
2133.291003884007
 30
0.0
 11
6392.482032336768
 21
2133.291003884007
 31
0.0
  0
LINE
  5
14DEC
330
1A
100
AcDbEntity
  8
Visible (ISO)
100
AcDbLine
 10
6498.482032336767
 20
2193.291003883989
 30
0.0
 11
6488.482032336766
 21
2193.291003883989
 31
0.0
  0
LINE
  5
14DED
330
1A
100
AcDbEntity
  8
Visible (ISO)
100
AcDbLine
 10
6488.482032336766
 20
2133.291003883989
 30
0.0
 11
6498.482032336767
 21
2133.291003883989
 31
0.0
  0
LINE
  5
14DEE
330
1A
100
AcDbEntity
  8
Visible (ISO)
100
AcDbLine
 10
6499.482032336766
 20
2192.291003883989
 30
0.0
 11
6499.482032336766
 21
2134.291003883989
 31
0.0
  0
LINE
  5
14DEF
330
1A
100
AcDbEntity
  8
Visible (ISO)
100
AcDbLine
 10
6392.482032336768
 20
2192.291003884007
 30
0.0
 11
6392.482032336768
 21
2134.291003884007
 31
0.0
  0
LINE
  5
14DF0
330
1A
100
AcDbEntity
  8
Visible (ISO)
100
AcDbLine
 10
6384.482032336768
 20
2192.291003884007
 30
0.0
 11
6384.482032336768
 21
2134.291003884007
 31
0.0
  0
LINE
  5
14DF1
330
1A
100
AcDbEntity
  8
Hidden (ISO)
100
AcDbLine
 10
6384.482032336768
 20
2171.791003883999
 30
0.0
 11
6392.482032336768
 21
2171.791003883999
 31
0.0
  0
LINE
  5
14DF2
330
1A
100
AcDbEntity
  8
Hidden (ISO)
100
AcDbLine
 10
6384.482032336768
 20
2154.791003883999
 30
0.0
 11
6392.482032336768
 21
2154.791003883999
 31
0.0
  0
LINE
  5
14DF3
330
1A
100
AcDbEntity
  8
Visible (ISO)
100
AcDbLine
 10
6388.482032336767
 20
2128.291003884004
 30
0.0
 11
6396.74441154926
 21
2128.291003884004
 31
0.0
  0
LINE
  5
14DF4
330
1A
100
AcDbEntity
  8
Visible (ISO)
100
AcDbLine
 10
6396.74441154926
 20
2133.291003884004
 30
0.0
 11
6396.74441154926
 21
2128.291003884004
 31
0.0
  0
LINE
  5
14DF5
330
1A
100
AcDbEntity
  8
Visible (ISO)
100
AcDbLine
 10
6396.74441154926
 20
2133.291003884004
 30
0.0
 11
6392.482032336768
 21
2133.291003884004
 31
0.0
  0
LINE
  5
14DF6
330
1A
100
AcDbEntity
  8
Visible (ISO)
100
AcDbLine
 10
6388.482032336767
 20
2133.291003884004
 30
0.0
 11
6388.482032336767
 21
2128.291003884004
 31
0.0
  0
LINE
  5
14DF7
330
1A
100
AcDbEntity
  8
Visible (ISO)
100
AcDbLine
 10
6396.74441154926
 20
2128.291003884004
 30
0.0
 11
6488.482032336766
 21
2128.291003883991
 31
0.0
  0
LINE
  5
14DF8
330
1A
100
AcDbEntity
  8
Visible (ISO)
100
AcDbLine
 10
6488.482032336766
 20
2133.291003883991
 30
0.0
 11
6488.482032336766
 21
2128.291003883991
 31
0.0
  0
LINE
  5
14DF9
330
1A
100
AcDbEntity
  8
Visible (ISO)
100
AcDbLine
 10
6488.482032336766
 20
2133.291003883991
 30
0.0
 11
6396.74441154926
 21
2133.291003884004
 31
0.0
  0
LINE
  5
14DFA
330
1A
100
AcDbEntity
  8
Hidden (ISO)
100
AcDbLine
 10
6428.482032336766
 20
2133.291003883988
 30
0.0
 11
6428.482032336766
 21
2128.291003883989
 31
0.0
  0
LINE
  5
14DFB
330
1A
100
AcDbEntity
  8
Visible (ISO)
100
AcDbLine
 10
6392.482032336768
 20
2193.291003884004
 30
0.0
 11
6396.74441154926
 21
2193.291003884004
 31
0.0
  0
LINE
  5
14DFC
330
1A
100
AcDbEntity
  8
Visible (ISO)
100
AcDbLine
 10
6396.74441154926
 20
2198.291003884004
 30
0.0
 11
6396.74441154926
 21
2193.291003884004
 31
0.0
  0
LINE
  5
14DFD
330
1A
100
AcDbEntity
  8
Visible (ISO)
100
AcDbLine
 10
6396.74441154926
 20
2198.291003884004
 30
0.0
 11
6388.482032336767
 21
2198.291003884004
 31
0.0
  0
LINE
  5
14DFE
330
1A
100
AcDbEntity
  8
Visible (ISO)
100
AcDbLine
 10
6388.482032336767
 20
2198.291003884004
 30
0.0
 11
6388.482032336767
 21
2193.291003884004
 31
0.0
  0
LINE
  5
14DFF
330
1A
100
AcDbEntity
  8
Visible (ISO)
100
AcDbLine
 10
6396.74441154926
 20
2193.291003884004
 30
0.0
 11
6488.482032336766
 21
2193.29100388399
 31
0.0
  0
LINE
  5
14E00
330
1A
100
AcDbEntity
  8
Visible (ISO)
100
AcDbLine
 10
6488.482032336766
 20
2198.291003883991
 30
0.0
 11
6488.482032336766
 21
2193.29100388399
 31
0.0
  0
LINE
  5
14E01
330
1A
100
AcDbEntity
  8
Visible (ISO)
100
AcDbLine
 10
6488.482032336766
 20
2198.291003883991
 30
0.0
 11
6396.74441154926
 21
2198.291003884004
 31
0.0
  0
LINE
  5
14E02
330
1A
100
AcDbEntity
  8
Hidden (ISO)
100
AcDbLine
 10
6428.482032336766
 20
2198.291003883988
 30
0.0
 11
6428.482032336766
 21
2193.291003883988
 31
0.0
  0
LINE
  5
14E03
330
1A
100
AcDbEntity
  8
Visible (ISO)
100
AcDbLine
 10
6211.665391457536
 20
2380.521370553017
 30
0.0
 11
6212.665391457536
 21
2380.521370553017
 31
0.0
  0
LINE
  5
14E04
330
1A
100
AcDbEntity
  8
Visible (ISO)
100
AcDbLine
 10
6212.665391457536
 20
2372.521370553016
 30
0.0
 11
6211.665391457536
 21
2372.521370553016
 31
0.0
  0
LINE
  5
14E05
330
1A
100
AcDbEntity
  8
Visible (ISO)
100
AcDbLine
 10
6212.665391457536
 20
2372.521370553016
 30
0.0
 11
6212.665391457536
 21
2380.521370553017
 31
0.0
  0
LINE
  5
14E06
330
1A
100
AcDbEntity
  8
Visible (ISO)
100
AcDbLine
 10
6152.665391457539
 20
2380.521370553017
 30
0.0
 11
6153.665391457535
 21
2380.521370553017
 31
0.0
  0
ARC
  5
14E07
330
1A
100
AcDbEntity
  8
Visible (ISO)
100
AcDbCircle
 10
6211.665391457504
 20
2441.521370553017
 30
0.0
 40
0.9999999999999964
100
AcDbArc
 50
0.0
 51
90.0
  0
ARC
  5
14E08
330
1A
100
AcDbEntity
  8
Visible (ISO)
100
AcDbCircle
 10
6153.665391457503
 20
2441.521370553017
 30
0.0
 40
0.9999999999999964
100
AcDbArc
 50
90.0
 51
180.0
  0
LINE
  5
14E09
330
1A
100
AcDbEntity
  8
Visible (ISO)
100
AcDbLine
 10
6152.665391457539
 20
2380.521370553017
 30
0.0
 11
6152.665391457539
 21
2372.521370553016
 31
0.0
  0
LINE
  5
14E0A
330
1A
100
AcDbEntity
  8
Visible (ISO)
100
AcDbLine
 10
6153.665391457535
 20
2372.521370553016
 30
0.0
 11
6152.665391457539
 21
2372.521370553016
 31
0.0
  0
LINE
  5
14E0B
330
1A
100
AcDbEntity
  8
Visible (ISO)
100
AcDbLine
 10
6211.665391457536
 20
2380.521370553017
 30
0.0
 11
6153.665391457535
 21
2380.521370553017
 31
0.0
  0
LINE
  5
14E0C
330
1A
100
AcDbEntity
  8
Visible (ISO)
100
AcDbLine
 10
6212.665391457504
 20
2431.521370553017
 30
0.0
 11
6212.665391457504
 21
2441.521370553017
 31
0.0
  0
LINE
  5
14E0D
330
1A
100
AcDbEntity
  8
Visible (ISO)
100
AcDbLine
 10
6211.665391457504
 20
2442.521370553017
 30
0.0
 11
6153.665391457503
 21
2442.521370553017
 31
0.0
  0
LINE
  5
14E0E
330
1A
100
AcDbEntity
  8
Visible (ISO)
100
AcDbLine
 10
6152.665391457507
 20
2441.521370553017
 30
0.0
 11
6152.665391457507
 21
2431.521370553017
 31
0.0
  0
LINE
  5
14E0F
330
1A
100
AcDbEntity
  8
Visible (ISO)
100
AcDbLine
 10
6211.665391457536
 20
2372.521370553016
 30
0.0
 11
6153.665391457535
 21
2372.521370553016
 31
0.0
  0
CIRCLE
  5
14E10
330
1A
100
AcDbEntity
  8
Visible (ISO)
100
AcDbCircle
 10
6182.665391457504
 20
2412.521370553017
 30
0.0
 40
8.5
  0
LINE
  5
14E11
330
1A
100
AcDbEntity
  8
Hidden (ISO)
100
AcDbLine
 10
6174.165391457529
 20
2372.521370553016
 30
0.0
 11
6174.165391457529
 21
2380.521370553017
 31
0.0
  0
LINE
  5
14E12
330
1A
100
AcDbEntity
  8
Hidden (ISO)
100
AcDbLine
 10
6191.165391457531
 20
2372.521370553016
 30
0.0
 11
6191.165391457531
 21
2380.521370553017
 31
0.0
  0
LINE
  5
14E13
330
1A
100
AcDbEntity
  8
Visible (ISO)
100
AcDbLine
 10
6152.665391457507
 20
2431.521370553017
 30
0.0
 11
6147.665391457508
 21
2431.521370553017
 31
0.0
  0
LINE
  5
14E14
330
1A
100
AcDbEntity
  8
Visible (ISO)
100
AcDbLine
 10
6147.665391457508
 20
2431.521370553017
 30
0.0
 11
6147.665391457532
 21
2385.652560159263
 31
0.0
  0
LINE
  5
14E15
330
1A
100
AcDbEntity
  8
Visible (ISO)
100
AcDbLine
 10
6152.665391457531
 20
2385.652560159263
 30
0.0
 11
6147.665391457532
 21
2385.652560159263
 31
0.0
  0
LINE
  5
14E16
330
1A
100
AcDbEntity
  8
Visible (ISO)
100
AcDbLine
 10
6152.665391457531
 20
2385.652560159263
 30
0.0
 11
6152.665391457507
 21
2431.521370553017
 31
0.0
  0
LINE
  5
14E17
330
1A
100
AcDbEntity
  8
Visible (ISO)
100
AcDbLine
 10
6147.665391457532
 20
2385.652560159263
 30
0.0
 11
6147.665391457532
 21
2376.521370553017
 31
0.0
  0
LINE
  5
14E18
330
1A
100
AcDbEntity
  8
Visible (ISO)
100
AcDbLine
 10
6152.665391457531
 20
2376.521370553017
 30
0.0
 11
6147.665391457532
 21
2376.521370553017
 31
0.0
  0
LINE
  5
14E19
330
1A
100
AcDbEntity
  8
Visible (ISO)
100
AcDbLine
 10
6152.665391457531
 20
2380.521370553017
 30
0.0
 11
6152.665391457531
 21
2385.652560159263
 31
0.0
  0
LINE
  5
14E1A
330
1A
100
AcDbEntity
  8
Hidden (ISO)
100
AcDbLine
 10
6152.665391457503
 20
2396.521370553017
 30
0.0
 11
6147.665391457504
 21
2396.521370553017
 31
0.0
  0
LINE
  5
14E1B
330
1A
100
AcDbEntity
  8
Visible (ISO)
100
AcDbLine
 10
6217.665391457508
 20
2431.521370553017
 30
0.0
 11
6212.665391457507
 21
2431.521370553017
 31
0.0
  0
LINE
  5
14E1C
330
1A
100
AcDbEntity
  8
Visible (ISO)
100
AcDbLine
 10
6212.665391457507
 20
2431.521370553017
 30
0.0
 11
6212.665391457536
 21
2385.652560159263
 31
0.0
  0
LINE
  5
14E1D
330
1A
100
AcDbEntity
  8
Visible (ISO)
100
AcDbLine
 10
6217.665391457535
 20
2385.652560159263
 30
0.0
 11
6212.665391457536
 21
2385.652560159263
 31
0.0
  0
LINE
  5
14E1E
330
1A
100
AcDbEntity
  8
Visible (ISO)
100
AcDbLine
 10
6217.665391457535
 20
2385.652560159263
 30
0.0
 11
6217.665391457508
 21
2431.521370553017
 31
0.0
  0
LINE
  5
14E1F
330
1A
100
AcDbEntity
  8
Visible (ISO)
100
AcDbLine
 10
6212.665391457536
 20
2385.652560159263
 30
0.0
 11
6212.665391457536
 21
2380.521370553017
 31
0.0
  0
LINE
  5
14E20
330
1A
100
AcDbEntity
  8
Visible (ISO)
100
AcDbLine
 10
6217.665391457535
 20
2376.521370553017
 30
0.0
 11
6212.665391457536
 21
2376.521370553017
 31
0.0
  0
LINE
  5
14E21
330
1A
100
AcDbEntity
  8
Visible (ISO)
100
AcDbLine
 10
6217.665391457535
 20
2376.521370553017
 30
0.0
 11
6217.665391457535
 21
2385.652560159263
 31
0.0
  0
LINE
  5
14E22
330
1A
100
AcDbEntity
  8
Hidden (ISO)
100
AcDbLine
 10
6217.665391457503
 20
2396.521370553017
 30
0.0
 11
6212.665391457504
 21
2396.521370553017
 31
0.0
  0
LINE
  5
14E23
330
1A
100
AcDbEntity
  8
Hidden (ISO)
100
AcDbLine
 10
6690.77824095413
 20
2380.521370553017
 30
0.0
 11
6750.778240954129
 21
2380.521370553017
 31
0.0
  0
LINE
  5
14E24
330
1A
100
AcDbEntity
  8
Visible (ISO)
100
AcDbLine
 10
6690.77824095413
 20
2372.521370553016
 30
0.0
 11
6690.778240954125
 21
2388.521370553016
 31
0.0
  0
LINE
  5
14E25
330
1A
100
AcDbEntity
  8
Visible (ISO)
100
AcDbLine
 10
6750.778240954129
 20
2372.521370553016
 30
0.0
 11
6750.778240954125
 21
2388.521370553016
 31
0.0
  0
LINE
  5
14E26
330
1A
100
AcDbEntity
  8
Visible (ISO)
100
AcDbLine
 10
6750.778240954129
 20
2372.521370553016
 30
0.0
 11
6690.77824095413
 21
2372.521370553016
 31
0.0
  0
LINE
  5
14E27
330
1A
100
AcDbEntity
  8
Visible (ISO)
100
AcDbLine
 10
6690.778240954125
 20
2441.521370553017
 30
0.0
 11
6690.778240954125
 21
2388.521370553016
 31
0.0
  0
LINE
  5
14E28
330
1A
100
AcDbEntity
  8
Visible (ISO)
100
AcDbLine
 10
6750.778240954125
 20
2388.521370553016
 30
0.0
 11
6750.778240954125
 21
2441.521370553017
 31
0.0
  0
LINE
  5
14E29
330
1A
100
AcDbEntity
  8
Visible (ISO)
100
AcDbLine
 10
6691.778240954125
 20
2442.521370553017
 30
0.0
 11
6749.778240954126
 21
2442.521370553017
 31
0.0
  0
ARC
  5
14E2A
330
1A
100
AcDbEntity
  8
Visible (ISO)
100
AcDbCircle
 10
6691.778240954125
 20
2441.521370553017
 30
0.0
 40
0.9999999999999964
100
AcDbArc
 50
90.0
 51
180.0
  0
ARC
  5
14E2B
330
1A
100
AcDbEntity
  8
Visible (ISO)
100
AcDbCircle
 10
6749.778240954126
 20
2441.521370553017
 30
0.0
 40
0.9999999999999964
100
AcDbArc
 50
0.0
 51
90.0
  0
CIRCLE
  5
14E2C
330
1A
100
AcDbEntity
  8
Visible (ISO)
100
AcDbCircle
 10
6720.778240954125
 20
2412.521370553017
 30
0.0
 40
8.500000000000001
  0
LINE
  5
14E2D
330
1A
100
AcDbEntity
  8
Hidden (ISO)
100
AcDbLine
 10
6712.27824095414
 20
2372.521370553016
 30
0.0
 11
6712.27824095414
 21
2380.521370553017
 31
0.0
  0
LINE
  5
14E2E
330
1A
100
AcDbEntity
  8
Hidden (ISO)
100
AcDbLine
 10
6729.27824095414
 20
2372.521370553016
 30
0.0
 11
6729.27824095414
 21
2380.521370553017
 31
0.0
  0
LINE
  5
14E2F
330
1A
100
AcDbEntity
  8
Visible (ISO)
100
AcDbLine
 10
6750.778240954126
 20
2431.521370553017
 30
0.0
 11
6755.778240954128
 21
2431.521370553017
 31
0.0
  0
LINE
  5
14E30
330
1A
100
AcDbEntity
  8
Visible (ISO)
100
AcDbLine
 10
6750.778240954137
 20
2376.521370553017
 30
0.0
 11
6755.778240954137
 21
2376.521370553017
 31
0.0
  0
LINE
  5
14E31
330
1A
100
AcDbEntity
  8
Visible (ISO)
100
AcDbLine
 10
6755.778240954137
 20
2376.521370553017
 30
0.0
 11
6755.778240954128
 21
2396.521370553017
 31
0.0
  0
LINE
  5
14E32
330
1A
100
AcDbEntity
  8
Visible (ISO)
100
AcDbLine
 10
6750.778240954126
 20
2396.521370553017
 30
0.0
 11
6755.778240954128
 21
2396.521370553017
 31
0.0
  0
LINE
  5
14E33
330
1A
100
AcDbEntity
  8
Visible (ISO)
100
AcDbLine
 10
6755.778240954128
 20
2396.521370553017
 30
0.0
 11
6755.778240954128
 21
2431.521370553017
 31
0.0
  0
LINE
  5
14E34
330
1A
100
AcDbEntity
  8
Hidden (ISO)
100
AcDbLine
 10
6750.778240954158
 20
2385.652560159263
 30
0.0
 11
6755.778240954157
 21
2385.652560159263
 31
0.0
  0
LINE
  5
14E35
330
1A
100
AcDbEntity
  8
Visible (ISO)
100
AcDbLine
 10
6685.778240954127
 20
2431.521370553017
 30
0.0
 11
6690.778240954127
 21
2431.521370553017
 31
0.0
  0
LINE
  5
14E36
330
1A
100
AcDbEntity
  8
Visible (ISO)
100
AcDbLine
 10
6685.77824095414
 20
2376.521370553017
 30
0.0
 11
6690.778240954138
 21
2376.521370553017
 31
0.0
  0
LINE
  5
14E37
330
1A
100
AcDbEntity
  8
Visible (ISO)
100
AcDbLine
 10
6685.778240954127
 20
2396.521370553017
 30
0.0
 11
6690.778240954127
 21
2396.521370553017
 31
0.0
  0
LINE
  5
14E38
330
1A
100
AcDbEntity
  8
Visible (ISO)
100
AcDbLine
 10
6685.778240954127
 20
2396.521370553017
 30
0.0
 11
6685.77824095414
 21
2376.521370553017
 31
0.0
  0
LINE
  5
14E39
330
1A
100
AcDbEntity
  8
Visible (ISO)
100
AcDbLine
 10
6685.778240954127
 20
2431.521370553017
 30
0.0
 11
6685.778240954127
 21
2396.521370553017
 31
0.0
  0
LINE
  5
14E3A
330
1A
100
AcDbEntity
  8
Hidden (ISO)
100
AcDbLine
 10
6685.778240954157
 20
2385.652560159263
 30
0.0
 11
6690.778240954156
 21
2385.652560159263
 31
0.0
  0
ELLIPSE
  5
14E3B
330
1A
100
AcDbEntity
  8
Visible (ISO)
100
AcDbEllipse
 10
5766.587101170363
 20
2494.907915546936
 30
0.0
 11
-8.500000000000001
 21
0.0000000000005038
 31
0.0
210
0.0
220
0.0
230
1.0
 40
0.5758617009853118
 41
0.0
 42
6.283185307179584
  0
ELLIPSE
  5
14E3C
330
1A
100
AcDbEntity
  8
Visible (ISO)
100
AcDbEllipse
 10
5766.587101170363
 20
2488.367538548195
 30
0.0
 11
-8.500000000000001
 21
-0.0000000000005083
 31
0.0
210
0.0
220
0.0
230
1.0
 40
0.5758617009853115
 41
3.873232981763687
 42
5.551544979005138
  0
ELLIPSE
  5
14E3D
330
1A
100
AcDbEntity
  8
Visible (ISO)
100
AcDbEllipse
 10
5791.335838511894
 20
2480.656065564206
 30
0.0
 11
-8.500000000000001
 21
0.0000000000005038
 31
0.0
210
0.0
220
0.0
230
1.0
 40
0.5758617009853118
 41
0.0
 42
6.283185307179584
  0
ELLIPSE
  5
14E3E
330
1A
100
AcDbEntity
  8
Visible (ISO)
100
AcDbEllipse
 10
5791.335838511894
 20
2474.115688565466
 30
0.0
 11
-8.500000000000001
 21
-0.0000000000005083
 31
0.0
210
0.0
220
0.0
230
1.0
 40
0.5758617009853115
 41
3.873232981763687
 42
5.551544979005138
  0
ELLIPSE
  5
14E3F
330
1A
100
AcDbEntity
  8
Visible (ISO)
100
AcDbEllipse
 10
5828.812497914782
 20
2482.692044133171
 30
0.0
 11
1.0
 21
0.0000000000000001
 31
0.0
210
0.0
220
0.0
230
1.0
 40
0.5758617009853119
 41
5.497787143782266
 42
7.068583470577186
  0
LINE
  5
14E40
330
1A
100
AcDbEntity
  8
Visible Narrow (ISO)
100
AcDbLine
 10
5829.519604695967
 20
2482.284848419379
 30
0.0
 11
5829.519604695967
 21
2475.744471420638
 31
0.0
  0
ELLIPSE
  5
14E41
330
1A
100
AcDbEntity
  8
Visible (ISO)
100
AcDbEllipse
 10
5828.812497914782
 20
2476.151667134431
 30
0.0
 11
0.9999999999999607
 21
0.0000000000000001
 31
0.0
210
0.0
220
0.0
230
1.0
 40
0.5758617009853118
 41
5.497787143782313
 42
6.283185307179584
  0
ELLIPSE
  5
14E42
330
1A
100
AcDbEntity
  8
Visible (ISO)
100
AcDbEllipse
 10
5787.800304605966
 20
2459.074692733212
 30
0.0
 11
-0.9999999999999964
 21
0.0000000000000595
 31
0.0
210
0.0
220
0.0
230
1.0
 40
0.5758617009853118
 41
0.7853981633977929
 42
2.356194490192731
  0
ELLIPSE
  5
14E43
330
1A
100
AcDbEntity
  8
Visible (ISO)
100
AcDbEllipse
 10
5748.202324859501
 20
2578.982730120885
 30
0.0
 11
0.4990322115841816
 21
0.866583436145302
 31
0.0
210
0.0
220
0.0
230
1.0
 40
0.578093115915639
 41
0.0
 42
0.7834644549744141
  0
LINE
  5
14E44
330
1A
100
AcDbEntity
  8
Visible Narrow (ISO)
100
AcDbLine
 10
5748.202324859501
 20
2579.800277245728
 30
0.0
 11
5753.859179108997
 21
2576.542711535389
 31
0.0
  0
ELLIPSE
  5
14E45
330
1A
100
AcDbEntity
  8
Visible (ISO)
100
AcDbEllipse
 10
5753.859179108997
 20
2575.725164410547
 30
0.0
 11
0.4990322115841809
 21
0.8665834361452995
 31
0.0
210
0.0
220
0.0
230
1.0
 40
0.578093115915639
 41
5.495853435359127
 42
7.066649762154001
  0
ELLIPSE
  5
14E46
330
1A
100
AcDbEntity
  8
Visible (ISO)
100
AcDbEllipse
 10
5712.846985800182
 20
2552.107813010588
 30
0.0
 11
0.4990322115842326
 21
0.8665834361452697
 31
0.0
210
0.0
220
0.0
230
1.0
 40
0.578093115915639
 41
0.7834644549746637
 42
2.354260781769561
  0
LINE
  5
14E47
330
1A
100
AcDbEntity
  8
Visible Narrow (ISO)
100
AcDbLine
 10
5712.846985800182
 20
2552.92536013543
 30
0.0
 11
5707.190131550689
 21
2556.18292584577
 31
0.0
  0
ELLIPSE
  5
14E48
330
1A
100
AcDbEntity
  8
Visible (ISO)
100
AcDbEllipse
 10
5707.190131550689
 20
2555.365378720926
 30
0.0
 11
-0.4990322115841292
 21
-0.8665834361453292
 31
0.0
210
0.0
220
0.0
230
1.0
 40
0.578093115915639
 41
3.92505710856396
 42
5.495853435358878
  0
LINE
  5
14E49
330
1A
100
AcDbEntity
  8
Visible Narrow (ISO)
100
AcDbLine
 10
5706.483024769502
 20
2554.958183007134
 30
0.0
 11
5712.139879018995
 21
2551.700617296795
 31
0.0
  0
LINE
  5
14E4A
330
1A
100
AcDbEntity
  8
Visible Narrow (ISO)
100
AcDbLine
 10
5787.093197824781
 20
2458.66749701942
 30
0.0
 11
5787.093197824781
 21
2452.12712002068
 31
0.0
  0
ELLIPSE
  5
14E4B
330
1A
100
AcDbEntity
  8
Visible (ISO)
100
AcDbEllipse
 10
5787.800304605966
 20
2452.534315734472
 30
0.0
 11
0.9999999999999964
 21
0.0000000000000596
 31
0.0
210
0.0
220
0.0
230
1.0
 40
0.5758617009853119
 41
3.926990816987201
 42
5.497787143782056
  0
LINE
  5
14E4C
330
1A
100
AcDbEntity
  8
Visible Narrow (ISO)
100
AcDbLine
 10
5788.507411387153
 20
2452.12712002068
 30
0.0
 11
5788.507411387153
 21
2458.66749701942
 31
0.0
  0
LINE
  5
14E4D
330
1A
100
AcDbEntity
  8
Visible (ISO)
100
AcDbLine
 10
5829.81249791478
 20
2476.151667134431
 30
0.0
 11
5829.81249791478
 21
2482.692044133171
 31
0.0
  0
LINE
  5
14E4E
330
1A
100
AcDbEntity
  8
Visible (ISO)
100
AcDbLine
 10
5754.358211320578
 20
2576.591747846692
 30
0.0
 11
5748.701357071086
 21
2579.84931355703
 31
0.0
  0
LINE
  5
14E4F
330
1A
100
AcDbEntity
  8
Visible (ISO)
100
AcDbLine
 10
5829.519604695967
 20
2483.099239846966
 30
0.0
 11
5760.223140139675
 21
2523.004419798607
 31
0.0
  0
LINE
  5
14E50
330
1A
100
AcDbEntity
  8
Visible (ISO)
100
AcDbLine
 10
5717.796733268489
 20
2498.572676971063
 30
0.0
 11
5721.359561196535
 21
2496.520980820099
 31
0.0
  0
LINE
  5
14E51
330
1A
100
AcDbEntity
  8
Visible (ISO)
100
AcDbLine
 10
5780.022130012913
 20
2462.739454157342
 30
0.0
 11
5787.093197824781
 21
2458.66749701942
 31
0.0
  0
LINE
  5
14E52
330
1A
100
AcDbEntity
  8
Visible (ISO)
100
AcDbLine
 10
5829.519604695967
 20
2482.284848419379
 30
0.0
 11
5788.507411387153
 21
2458.66749701942
 31
0.0
  0
LINE
  5
14E53
330
1A
100
AcDbEntity
  8
Visible (ISO)
100
AcDbLine
 10
5754.566285890181
 20
2532.802362507685
 30
0.0
 11
5754.566285890181
 21
2576.132360124339
 31
0.0
  0
LINE
  5
14E54
330
1A
100
AcDbEntity
  8
Visible (ISO)
100
AcDbLine
 10
5753.859179108997
 20
2576.542711535389
 30
0.0
 11
5712.846985800182
 21
2552.92536013543
 31
0.0
  0
LINE
  5
14E55
330
1A
100
AcDbEntity
  8
Visible (ISO)
100
AcDbLine
 10
5712.139879018995
 20
2551.700617296795
 30
0.0
 11
5712.139879018995
 21
2543.52514604837
 31
0.0
  0
LINE
  5
14E56
330
1A
100
AcDbEntity
  8
Visible (ISO)
100
AcDbLine
 10
5706.483024769502
 20
2511.62818539048
 30
0.0
 11
5706.483024769502
 21
2513.687831688876
 31
0.0
  0
LINE
  5
14E57
330
1A
100
AcDbEntity
  8
Visible (ISO)
100
AcDbLine
 10
5706.483024769502
 20
2543.525146048369
 30
0.0
 11
5706.483024769502
 21
2554.958183007134
 31
0.0
  0
LINE
  5
14E58
330
1A
100
AcDbEntity
  8
Visible (ISO)
100
AcDbLine
 10
5787.093197824781
 20
2452.12712002068
 30
0.0
 11
5777.18274297452
 21
2457.834171408287
 31
0.0
  0
LINE
  5
14E59
330
1A
100
AcDbEntity
  8
Visible (ISO)
100
AcDbLine
 10
5732.673269695522
 20
2483.465472400683
 30
0.0
 11
5717.796733268489
 21
2492.032299972323
 31
0.0
  0
LINE
  5
14E5A
330
1A
100
AcDbEntity
  8
Visible (ISO)
100
AcDbLine
 10
5829.519604695967
 20
2475.744471420638
 30
0.0
 11
5788.507411387153
 21
2452.12712002068
 31
0.0
  0
LINE
  5
14E5B
330
1A
100
AcDbEntity
  8
Visible (ISO)
100
AcDbLine
 10
5748.202324859501
 20
2579.800277245728
 30
0.0
 11
5707.190131550689
 21
2556.18292584577
 31
0.0
  0
LINE
  5
14E5C
330
1A
100
AcDbEntity
  8
Visible Narrow (ISO)
100
AcDbLine
 10
5760.223140139675
 20
2523.004419798607
 30
0.0
 11
5741.017151380671
 21
2511.944426442739
 31
0.0
  0
LINE
  5
14E5D
330
1A
100
AcDbEntity
  8
Visible Narrow (ISO)
100
AcDbLine
 10
5718.987406543428
 20
2499.258340108487
 30
0.0
 11
5717.796733268489
 21
2498.572676971063
 31
0.0
  0
ELLIPSE
  5
14E5E
330
1A
100
AcDbEntity
  8
Visible (ISO)
100
AcDbEllipse
 10
5760.223140139675
 20
2529.544796797349
 30
0.0
 11
3.992257692675648
 21
-6.93266748916115
 31
0.0
210
0.0
220
0.0
230
1.0
 40
0.5780931159158107
 41
3.928924525409879
 42
5.499720852204784
  0
LINE
  5
14E5F
330
1A
100
AcDbEntity
  8
Visible Narrow (ISO)
100
AcDbLine
 10
5733.469814258829
 20
2520.653712469262
 30
0.0
 11
5754.566285890181
 21
2532.802362507685
 31
0.0
  0
ELLIPSE
  5
14E60
330
1A
100
AcDbEntity
  8
Visible (ISO)
100
AcDbEllipse
 10
5717.796733268489
 20
2505.113053969803
 30
0.0
 11
7.984515385351307
 21
-13.86533497832232
 31
0.0
210
0.0
220
0.0
230
1.0
 40
0.5780931159158106
 41
3.928924525409883
 42
5.499720852204781
  0
ELLIPSE
  5
14E61
330
1A
100
AcDbEntity
  8
Visible (ISO)
100
AcDbEllipse
 10
5717.796733268489
 20
2505.113053969802
 30
0.0
 11
3.992257692675652
 21
-6.932667489161155
 31
0.0
210
0.0
220
0.0
230
1.0
 40
0.5780931159158106
 41
4.124826433661016
 42
5.499720852204835
  0
ELLIPSE
  5
14E62
330
1A
100
AcDbEntity
  8
Visible (ISO)
100
AcDbEllipse
 10
5733.353082454588
 20
2540.207622090134
 30
0.0
 11
-4.241773798465549
 21
-7.365959207235071
 31
0.0
210
0.0
220
0.0
230
1.0
 40
0.578093115915639
 41
0.0
 42
6.283185307179584
  0
ELLIPSE
  5
14E63
330
1A
100
AcDbEntity
  8
Visible (ISO)
100
AcDbEllipse
 10
5727.696228205095
 20
2543.465187800472
 30
0.0
 11
4.24177379846511
 21
7.365959207235325
 31
0.0
210
0.0
220
0.0
230
0.9999999999999998
 40
0.578093115915639
 41
3.86805471005133
 42
5.556723250717506
  0
LINE
  5
14E64
330
1A
100
AcDbEntity
  8
Visible (ISO)
100
AcDbLine
 10
5705.775917988315
 20
2543.117950334578
 30
0.0
 11
5711.618302358205
 21
2539.753544933524
 31
0.0
  0
LINE
  5
14E65
330
1A
100
AcDbEntity
  8
Visible (ISO)
100
AcDbLine
 10
5715.153836264136
 20
2541.789523502486
 30
0.0
 11
5711.618302358205
 21
2539.753544933524
 31
0.0
  0
LINE
  5
14E66
330
1A
100
AcDbEntity
  8
Visible (ISO)
100
AcDbLine
 10
5715.153836264136
 20
2541.789523502486
 30
0.0
 11
5709.311451894248
 21
2545.153928903539
 31
0.0
  0
LINE
  5
14E67
330
1A
100
AcDbEntity
  8
Visible (ISO)
100
AcDbLine
 10
5709.311451894248
 20
2545.153928903539
 30
0.0
 11
5705.775917988315
 21
2543.117950334578
 31
0.0
  0
LINE
  5
14E68
330
1A
100
AcDbEntity
  8
Visible (ISO)
100
AcDbLine
 10
5711.618302358205
 20
2539.753544933524
 30
0.0
 11
5776.48659610698
 21
2464.898464897989
 31
0.0
  0
LINE
  5
14E69
330
1A
100
AcDbEntity
  8
Visible (ISO)
100
AcDbLine
 10
5780.022130012913
 20
2466.934443466951
 30
0.0
 11
5776.48659610698
 21
2464.898464897989
 31
0.0
  0
LINE
  5
14E6A
330
1A
100
AcDbEntity
  8
Visible (ISO)
100
AcDbLine
 10
5780.022130012913
 20
2466.934443466951
 30
0.0
 11
5715.153836264136
 21
2541.789523502486
 31
0.0
  0
LINE
  5
14E6B
330
1A
100
AcDbEntity
  8
Visible (ISO)
100
AcDbLine
 10
5776.48659610698
 20
2464.898464897989
 30
0.0
 11
5776.48659610698
 21
2457.43328708901
 31
0.0
  0
LINE
  5
14E6C
330
1A
100
AcDbEntity
  8
Visible (ISO)
100
AcDbLine
 10
5780.022130012913
 20
2459.469265657972
 30
0.0
 11
5776.48659610698
 21
2457.43328708901
 31
0.0
  0
LINE
  5
14E6D
330
1A
100
AcDbEntity
  8
Visible (ISO)
100
AcDbLine
 10
5780.022130012913
 20
2459.469265657972
 30
0.0
 11
5780.022130012913
 21
2466.934443466951
 31
0.0
  0
LINE
  5
14E6E
330
1A
100
AcDbEntity
  8
Visible (ISO)
100
AcDbLine
 10
5776.48659610698
 20
2457.43328708901
 30
0.0
 11
5734.060189235782
 21
2481.865029916547
 31
0.0
  0
LINE
  5
14E6F
330
1A
100
AcDbEntity
  8
Visible (ISO)
100
AcDbLine
 10
5734.060189235782
 20
2481.865029916547
 30
0.0
 11
5705.775917988315
 21
2514.503800965089
 31
0.0
  0
LINE
  5
14E70
330
1A
100
AcDbEntity
  8
Visible (ISO)
100
AcDbLine
 10
5705.775917988315
 20
2514.503800965089
 30
0.0
 11
5705.775917988315
 21
2543.117950334578
 31
0.0
  0
LINE
  5
14E71
330
1A
100
AcDbEntity
  8
Visible (ISO)
100
AcDbLine
 10
5754.566285890181
 20
2567.956888875914
 30
0.0
 11
5757.580243135323
 21
2566.221266330031
 31
0.0
  0
LINE
  5
14E72
330
1A
100
AcDbEntity
  8
Visible (ISO)
100
AcDbLine
 10
5761.115777041258
 20
2568.257244898991
 30
0.0
 11
5757.580243135323
 21
2566.221266330031
 31
0.0
  0
LINE
  5
14E73
330
1A
100
AcDbEntity
  8
Visible (ISO)
100
AcDbLine
 10
5761.115777041258
 20
2568.257244898991
 30
0.0
 11
5755.273392671367
 21
2571.621650300045
 31
0.0
  0
LINE
  5
14E74
330
1A
100
AcDbEntity
  8
Visible (ISO)
100
AcDbLine
 10
5755.273392671367
 20
2571.621650300045
 30
0.0
 11
5754.566285890181
 21
2571.214454586253
 31
0.0
  0
LINE
  5
14E75
330
1A
100
AcDbEntity
  8
Visible (ISO)
100
AcDbLine
 10
5757.580243135323
 20
2566.221266330031
 30
0.0
 11
5822.448536884102
 21
2491.366186294496
 31
0.0
  0
LINE
  5
14E76
330
1A
100
AcDbEntity
  8
Visible (ISO)
100
AcDbLine
 10
5825.984070790032
 20
2493.402164863457
 30
0.0
 11
5822.448536884102
 21
2491.366186294496
 31
0.0
  0
LINE
  5
14E77
330
1A
100
AcDbEntity
  8
Visible (ISO)
100
AcDbLine
 10
5825.984070790032
 20
2493.402164863457
 30
0.0
 11
5761.115777041258
 21
2568.257244898991
 31
0.0
  0
LINE
  5
14E78
330
1A
100
AcDbEntity
  8
Visible (ISO)
100
AcDbLine
 10
5822.448536884102
 20
2491.366186294496
 30
0.0
 11
5822.448536884102
 21
2487.171196984886
 31
0.0
  0
LINE
  5
14E79
330
1A
100
AcDbEntity
  8
Visible (ISO)
100
AcDbLine
 10
5825.984070790032
 20
2485.936987054478
 30
0.0
 11
5825.287923922494
 21
2485.536102735201
 31
0.0
  0
LINE
  5
14E7A
330
1A
100
AcDbEntity
  8
Visible (ISO)
100
AcDbLine
 10
5825.984070790032
 20
2485.936987054478
 30
0.0
 11
5825.984070790032
 21
2493.402164863457
 31
0.0
  0
LINE
  5
14E7B
330
1A
100
AcDbEntity
  8
Visible (ISO)
100
AcDbLine
 10
5774.365275763408
 20
2514.860505522761
 30
0.0
 11
5754.566285890181
 21
2537.70764525674
 31
0.0
  0
LINE
  5
14F5D
330
1A
100
AcDbEntity
  8
Visible (ISO)
100
AcDbLine
 10
6388.891376949142
 20
254.1395493370419
 30
0.0
 11
6408.891376949142
 21
254.1395493370419
 31
0.0
  0
LINE
  5
14F5E
330
1A
100
AcDbEntity
  8
Visible (ISO)
100
AcDbLine
 10
6672.891376949142
 20
254.1395493370419
 30
0.0
 11
6691.891376949143
 21
254.1395493370419
 31
0.0
  0
LINE
  5
14F5F
330
1A
100
AcDbEntity
  8
Visible (ISO)
100
AcDbLine
 10
6380.891376949142
 20
315.139549337041
 30
0.0
 11
6380.891376949142
 21
300.1395493370419
 31
0.0
  0
LINE
  5
14F60
330
1A
100
AcDbEntity
  8
Visible (ISO)
100
AcDbLine
 10
6380.891376949142
 20
268.1395493370419
 30
0.0
 11
6380.891376949142
 21
262.1395493370419
 31
0.0
  0
LINE
  5
14F61
330
1A
100
AcDbEntity
  8
Visible (ISO)
100
AcDbLine
 10
6372.891376949142
 20
262.1395493370419
 30
0.0
 11
6372.891376949142
 21
315.139549337041
 31
0.0
  0
LINE
  5
14F62
330
1A
100
AcDbEntity
  8
Visible (ISO)
100
AcDbLine
 10
6691.891376949143
 20
246.1395493370419
 30
0.0
 11
6388.891376949142
 21
246.1395493370419
 31
0.0
  0
LINE
  5
14F63
330
1A
100
AcDbEntity
  8
Hidden (ISO)
100
AcDbLine
 10
6408.891376949142
 20
254.1395493370419
 30
0.0
 11
6672.891376949142
 21
254.1395493370419
 31
0.0
  0
LINE
  5
14F64
330
1A
100
AcDbEntity
  8
Hidden (ISO)
100
AcDbLine
 10
6380.891376949142
 20
300.1395493370419
 30
0.0
 11
6380.891376949142
 21
268.1395493370419
 31
0.0
  0
LINE
  5
14F65
330
1A
100
AcDbEntity
  8
Visible (ISO)
100
AcDbLine
 10
6691.891376949143
 20
254.1395493370419
 30
0.0
 11
6692.891376949141
 21
254.1395493370419
 31
0.0
  0
LINE
  5
14F66
330
1A
100
AcDbEntity
  8
Visible (ISO)
100
AcDbLine
 10
6380.891376949142
 20
316.139549337041
 30
0.0
 11
6380.891376949142
 21
315.139549337041
 31
0.0
  0
LINE
  5
14F67
330
1A
100
AcDbEntity
  8
Visible (ISO)
100
AcDbLine
 10
6380.891376949142
 20
316.1395493370419
 30
0.0
 11
6372.891376949142
 21
316.1395493370419
 31
0.0
  0
LINE
  5
14F68
330
1A
100
AcDbEntity
  8
Visible (ISO)
100
AcDbLine
 10
6372.891376949142
 20
315.139549337041
 30
0.0
 11
6372.891376949142
 21
316.139549337041
 31
0.0
  0
LINE
  5
14F69
330
1A
100
AcDbEntity
  8
Visible (ISO)
100
AcDbLine
 10
6692.891376949141
 20
246.1395493370419
 30
0.0
 11
6691.891376949143
 21
246.1395493370419
 31
0.0
  0
LINE
  5
14F6A
330
1A
100
AcDbEntity
  8
Visible (ISO)
100
AcDbLine
 10
6692.891376949141
 20
246.1395493370419
 30
0.0
 11
6692.891376949141
 21
254.1395493370419
 31
0.0
  0
ARC
  5
14F6B
330
1A
100
AcDbEntity
  8
Visible (ISO)
100
AcDbCircle
 10
6388.891376949142
 20
262.1395493370419
 30
0.0
 40
16.0
100
AcDbArc
 50
180.0
 51
270.0
  0
ARC
  5
14F6C
330
1A
100
AcDbEntity
  8
Visible (ISO)
100
AcDbCircle
 10
6388.891376949142
 20
262.1395493370419
 30
0.0
 40
7.999999999999992
100
AcDbArc
 50
180.0
 51
270.0
  0
LINE
  5
14F6D
330
1A
100
AcDbEntity
  8
Hidden (ISO)
100
AcDbLine
 10
6589.391376949142
 20
246.1395493370419
 30
0.0
 11
6589.391376949142
 21
254.1395493370419
 31
0.0
  0
LINE
  5
14F6E
330
1A
100
AcDbEntity
  8
Hidden (ISO)
100
AcDbLine
 10
6606.391376949142
 20
246.1395493370419
 30
0.0
 11
6606.391376949142
 21
254.1395493370419
 31
0.0
  0
LINE
  5
14F6F
330
1A
100
AcDbEntity
  8
Hidden (ISO)
100
AcDbLine
 10
6624.391376949141
 20
246.1395493370419
 30
0.0
 11
6624.391376949141
 21
254.1395493370419
 31
0.0
  0
LINE
  5
14F70
330
1A
100
AcDbEntity
  8
Hidden (ISO)
100
AcDbLine
 10
6641.391376949141
 20
246.1395493370419
 30
0.0
 11
6641.391376949141
 21
254.1395493370419
 31
0.0
  0
LINE
  5
14F71
330
1A
100
AcDbEntity
  8
Hidden (ISO)
100
AcDbLine
 10
6659.391376949142
 20
246.1395493370419
 30
0.0
 11
6659.391376949142
 21
254.1395493370419
 31
0.0
  0
LINE
  5
14F72
330
1A
100
AcDbEntity
  8
Hidden (ISO)
100
AcDbLine
 10
6676.391376949142
 20
246.1395493370419
 30
0.0
 11
6676.391376949142
 21
254.1395493370419
 31
0.0
  0
LINE
  5
14F73
330
1A
100
AcDbEntity
  8
Hidden (ISO)
100
AcDbLine
 10
6372.891376949142
 20
294.6395493370419
 30
0.0
 11
6380.891376949142
 21
294.6395493370419
 31
0.0
  0
LINE
  5
14F74
330
1A
100
AcDbEntity
  8
Hidden (ISO)
100
AcDbLine
 10
6372.891376949142
 20
277.639549337041
 30
0.0
 11
6380.891376949142
 21
277.639549337041
 31
0.0
  0
LINE
  5
14F75
330
1A
100
AcDbEntity
  8
Visible (ISO)
100
AcDbLine
 10
6384.891376949141
 20
300.139549337041
 30
0.0
 11
6672.891376949142
 21
258.139549337041
 31
0.0
  0
LINE
  5
14F76
330
1A
100
AcDbEntity
  8
Visible (ISO)
100
AcDbLine
 10
6672.891376949142
 20
258.139549337041
 30
0.0
 11
6672.891376949142
 21
250.139549337041
 31
0.0
  0
LINE
  5
14F77
330
1A
100
AcDbEntity
  8
Visible (ISO)
100
AcDbLine
 10
6672.891376949142
 20
250.139549337041
 30
0.0
 11
6416.891376949142
 21
250.139549337041
 31
0.0
  0
LINE
  5
14F78
330
1A
100
AcDbEntity
  8
Visible (ISO)
100
AcDbLine
 10
6416.891376949142
 20
250.139549337041
 30
0.0
 11
6376.891376949142
 21
270.1395493370419
 31
0.0
  0
LINE
  5
14F79
330
1A
100
AcDbEntity
  8
Visible (ISO)
100
AcDbLine
 10
6376.891376949142
 20
270.1395493370419
 30
0.0
 11
6376.891376949142
 21
300.139549337041
 31
0.0
  0
LINE
  5
14F7A
330
1A
100
AcDbEntity
  8
Visible (ISO)
100
AcDbLine
 10
6376.891376949142
 20
300.139549337041
 30
0.0
 11
6384.891376949141
 21
300.139549337041
 31
0.0
  0
CIRCLE
  5
14F7B
330
1A
100
AcDbEntity
  8
Visible (ISO)
100
AcDbCircle
 10
6597.891376949141
 20
17.65842682238326
 30
0.0
 40
8.5
  0
CIRCLE
  5
14F7C
330
1A
100
AcDbEntity
  8
Visible (ISO)
100
AcDbCircle
 10
6632.891376949142
 20
17.65842682238326
 30
0.0
 40
8.5
  0
CIRCLE
  5
14F7D
330
1A
100
AcDbEntity
  8
Visible (ISO)
100
AcDbCircle
 10
6667.891376949142
 20
17.65842682238326
 30
0.0
 40
8.5
  0
ARC
  5
14F7E
330
1A
100
AcDbEntity
  8
Visible (ISO)
100
AcDbCircle
 10
6691.891376949143
 20
46.65842682238348
 30
0.0
 40
1.000000000000007
100
AcDbArc
 50
0.0
 51
90.0
  0
ARC
  5
14F7F
330
1A
100
AcDbEntity
  8
Visible (ISO)
100
AcDbCircle
 10
6691.891376949143
 20
-11.34157317761651
 30
0.0
 40
1.000000000000011
100
AcDbArc
 50
270.0
 51
0.0
  0
LINE
  5
14F80
330
1A
100
AcDbEntity
  8
Visible (ISO)
100
AcDbLine
 10
6380.891376949142
 20
47.65842682240132
 30
0.0
 11
6372.891376949142
 21
47.65842682240132
 31
0.0
  0
LINE
  5
14F81
330
1A
100
AcDbEntity
  8
Visible (ISO)
100
AcDbLine
 10
6372.891376949142
 20
46.65842682240156
 30
0.0
 11
6372.891376949142
 21
47.65842682240132
 31
0.0
  0
LINE
  5
14F82
330
1A
100
AcDbEntity
  8
Visible (ISO)
100
AcDbLine
 10
6380.891376949142
 20
47.65842682240132
 30
0.0
 11
6380.891376949142
 21
46.65842682240156
 31
0.0
  0
LINE
  5
14F83
330
1A
100
AcDbEntity
  8
Visible (ISO)
100
AcDbLine
 10
6380.891376949142
 20
-11.34157317759809
 30
0.0
 11
6380.891376949142
 21
-12.34157317759855
 31
0.0
  0
LINE
  5
14F84
330
1A
100
AcDbEntity
  8
Visible (ISO)
100
AcDbLine
 10
6372.891376949142
 20
-12.34157317759855
 30
0.0
 11
6372.891376949142
 21
-11.34157317759809
 31
0.0
  0
LINE
  5
14F85
330
1A
100
AcDbEntity
  8
Visible (ISO)
100
AcDbLine
 10
6372.891376949142
 20
-12.34157317759855
 30
0.0
 11
6380.891376949142
 21
-12.34157317759855
 31
0.0
  0
LINE
  5
14F86
330
1A
100
AcDbEntity
  8
Visible (ISO)
100
AcDbLine
 10
6691.891376949143
 20
47.65842682238326
 30
0.0
 11
6672.891376949142
 21
47.65842682238326
 31
0.0
  0
LINE
  5
14F87
330
1A
100
AcDbEntity
  8
Visible (ISO)
100
AcDbLine
 10
6672.891376949142
 20
-12.34157317761674
 30
0.0
 11
6691.891376949143
 21
-12.34157317761674
 31
0.0
  0
LINE
  5
14F88
330
1A
100
AcDbEntity
  8
Visible (ISO)
100
AcDbLine
 10
6692.891376949141
 20
46.65842682238348
 30
0.0
 11
6692.891376949141
 21
-11.34157317761651
 31
0.0
  0
LINE
  5
14F89
330
1A
100
AcDbEntity
  8
Visible (ISO)
100
AcDbLine
 10
6380.891376949142
 20
46.65842682240156
 30
0.0
 11
6380.891376949142
 21
-11.34157317759809
 31
0.0
  0
LINE
  5
14F8A
330
1A
100
AcDbEntity
  8
Visible (ISO)
100
AcDbLine
 10
6372.891376949142
 20
46.65842682240156
 30
0.0
 11
6372.891376949142
 21
-11.34157317759809
 31
0.0
  0
LINE
  5
14F8B
330
1A
100
AcDbEntity
  8
Hidden (ISO)
100
AcDbLine
 10
6372.891376949142
 20
26.15842682239281
 30
0.0
 11
6380.891376949142
 21
26.15842682239281
 31
0.0
  0
LINE
  5
14F8C
330
1A
100
AcDbEntity
  8
Hidden (ISO)
100
AcDbLine
 10
6372.891376949142
 20
9.158426822392813
 30
0.0
 11
6380.891376949142
 21
9.158426822392813
 31
0.0
  0
LINE
  5
14F8D
330
1A
100
AcDbEntity
  8
Visible (ISO)
100
AcDbLine
 10
6384.891376949141
 20
-17.34157317760309
 30
0.0
 11
6672.891376949142
 21
-17.3415731776156
 31
0.0
  0
LINE
  5
14F8E
330
1A
100
AcDbEntity
  8
Visible (ISO)
100
AcDbLine
 10
6672.891376949142
 20
-12.34157317761537
 30
0.0
 11
6672.891376949142
 21
-17.3415731776156
 31
0.0
  0
LINE
  5
14F8F
330
1A
100
AcDbEntity
  8
Visible (ISO)
100
AcDbLine
 10
6384.891376949141
 20
-12.34157317760309
 30
0.0
 11
6672.891376949142
 21
-12.34157317761537
 31
0.0
  0
LINE
  5
14F90
330
1A
100
AcDbEntity
  8
Visible (ISO)
100
AcDbLine
 10
6384.891376949141
 20
-12.34157317760309
 30
0.0
 11
6384.891376949141
 21
-17.34157317760309
 31
0.0
  0
LINE
  5
14F91
330
1A
100
AcDbEntity
  8
Visible (ISO)
100
AcDbLine
 10
6376.891376949142
 20
-12.34157317760309
 30
0.0
 11
6376.891376949142
 21
-17.34157317760309
 31
0.0
  0
LINE
  5
14F92
330
1A
100
AcDbEntity
  8
Visible (ISO)
100
AcDbLine
 10
6376.891376949142
 20
-17.34157317760309
 30
0.0
 11
6384.891376949141
 21
-17.34157317760309
 31
0.0
  0
LINE
  5
14F93
330
1A
100
AcDbEntity
  8
Visible (ISO)
100
AcDbLine
 10
6380.891376949142
 20
-12.34157317760309
 30
0.0
 11
6384.891376949141
 21
-12.34157317760309
 31
0.0
  0
LINE
  5
14F94
330
1A
100
AcDbEntity
  8
Hidden (ISO)
100
AcDbLine
 10
6416.891376949142
 20
-12.34157317761787
 30
0.0
 11
6416.891376949142
 21
-17.34157317761787
 31
0.0
  0
LINE
  5
14F95
330
1A
100
AcDbEntity
  8
Visible (ISO)
100
AcDbLine
 10
6384.891376949141
 20
47.65842682239667
 30
0.0
 11
6672.891376949142
 21
47.65842682238438
 31
0.0
  0
LINE
  5
14F96
330
1A
100
AcDbEntity
  8
Visible (ISO)
100
AcDbLine
 10
6672.891376949142
 20
52.65842682238439
 30
0.0
 11
6672.891376949142
 21
47.65842682238438
 31
0.0
  0
LINE
  5
14F97
330
1A
100
AcDbEntity
  8
Visible (ISO)
100
AcDbLine
 10
6384.891376949141
 20
52.65842682239668
 30
0.0
 11
6672.891376949142
 21
52.65842682238439
 31
0.0
  0
LINE
  5
14F98
330
1A
100
AcDbEntity
  8
Visible (ISO)
100
AcDbLine
 10
6384.891376949141
 20
52.65842682239668
 30
0.0
 11
6384.891376949141
 21
47.65842682239667
 31
0.0
  0
LINE
  5
14F99
330
1A
100
AcDbEntity
  8
Visible (ISO)
100
AcDbLine
 10
6376.891376949142
 20
52.65842682239668
 30
0.0
 11
6376.891376949142
 21
47.65842682239667
 31
0.0
  0
LINE
  5
14F9A
330
1A
100
AcDbEntity
  8
Visible (ISO)
100
AcDbLine
 10
6380.891376949142
 20
47.65842682239667
 30
0.0
 11
6384.891376949141
 21
47.65842682239667
 31
0.0
  0
LINE
  5
14F9B
330
1A
100
AcDbEntity
  8
Visible (ISO)
100
AcDbLine
 10
6376.891376949142
 20
52.65842682239668
 30
0.0
 11
6384.891376949141
 21
52.65842682239668
 31
0.0
  0
LINE
  5
14F9C
330
1A
100
AcDbEntity
  8
Hidden (ISO)
100
AcDbLine
 10
6416.891376949142
 20
52.6584268223821
 30
0.0
 11
6416.891376949142
 21
47.6584268223821
 31
0.0
  0
CIRCLE
  5
14F9D
330
1A
100
AcDbEntity
  8
Visible (ISO)
100
AcDbCircle
 10
6597.891376949141
 20
485.6841049734038
 30
0.0
 40
8.5
  0
CIRCLE
  5
14F9E
330
1A
100
AcDbEntity
  8
Visible (ISO)
100
AcDbCircle
 10
6632.891376949142
 20
485.6841049734038
 30
0.0
 40
8.5
  0
CIRCLE
  5
14F9F
330
1A
100
AcDbEntity
  8
Visible (ISO)
100
AcDbCircle
 10
6667.891376949142
 20
485.6841049734038
 30
0.0
 40
8.5
  0
ARC
  5
14FA0
330
1A
100
AcDbEntity
  8
Visible (ISO)
100
AcDbCircle
 10
6691.891376949143
 20
456.6841049734038
 30
0.0
 40
1.000000000000011
100
AcDbArc
 50
270.0
 51
0.0
  0
ARC
  5
14FA1
330
1A
100
AcDbEntity
  8
Visible (ISO)
100
AcDbCircle
 10
6691.891376949143
 20
514.6841049734038
 30
0.0
 40
1.000000000000005
100
AcDbArc
 50
0.0
 51
90.0
  0
LINE
  5
14FA2
330
1A
100
AcDbEntity
  8
Visible (ISO)
100
AcDbLine
 10
6388.891376949142
 20
455.6841049734038
 30
0.0
 11
6691.891376949143
 21
455.6841049734038
 31
0.0
  0
LINE
  5
14FA3
330
1A
100
AcDbEntity
  8
Visible (ISO)
100
AcDbLine
 10
6691.891376949143
 20
515.6841049734038
 30
0.0
 11
6388.891376949142
 21
515.6841049734038
 31
0.0
  0
LINE
  5
14FA4
330
1A
100
AcDbEntity
  8
Visible (ISO)
100
AcDbLine
 10
6692.891376949141
 20
456.6841049734038
 30
0.0
 11
6692.891376949141
 21
514.6841049734038
 31
0.0
  0
LINE
  5
14FA5
330
1A
100
AcDbEntity
  8
Visible (ISO)
100
AcDbLine
 10
6388.891376949142
 20
455.6841049734038
 30
0.0
 11
6372.891376949142
 21
455.6841049734088
 31
0.0
  0
LINE
  5
14FA6
330
1A
100
AcDbEntity
  8
Visible (ISO)
100
AcDbLine
 10
6388.891376949142
 20
515.6841049734038
 30
0.0
 11
6372.891376949142
 21
515.6841049734091
 31
0.0
  0
LINE
  5
14FA7
330
1A
100
AcDbEntity
  8
Visible (ISO)
100
AcDbLine
 10
6372.891376949142
 20
455.6841049734088
 30
0.0
 11
6372.891376949142
 21
515.6841049734091
 31
0.0
  0
LINE
  5
14FA8
330
1A
100
AcDbEntity
  8
Hidden (ISO)
100
AcDbLine
 10
6380.891376949142
 20
515.6841049734091
 30
0.0
 11
6380.891376949142
 21
455.6841049734088
 31
0.0
  0
LINE
  5
14FA9
330
1A
100
AcDbEntity
  8
Hidden (ISO)
100
AcDbLine
 10
6372.891376949142
 20
494.1841049734161
 30
0.0
 11
6380.891376949142
 21
494.1841049734161
 31
0.0
  0
LINE
  5
14FAA
330
1A
100
AcDbEntity
  8
Hidden (ISO)
100
AcDbLine
 10
6372.891376949142
 20
477.1841049734161
 30
0.0
 11
6380.891376949142
 21
477.1841049734161
 31
0.0
  0
LINE
  5
14FAB
330
1A
100
AcDbEntity
  8
Hidden (ISO)
100
AcDbLine
 10
6384.891376949141
 20
515.68410497342
 30
0.0
 11
6384.891376949141
 21
520.6841049734207
 31
0.0
  0
LINE
  5
14FAC
330
1A
100
AcDbEntity
  8
Visible (ISO)
100
AcDbLine
 10
6672.891376949142
 20
515.6841049734062
 30
0.0
 11
6672.891376949142
 21
520.6841049734062
 31
0.0
  0
LINE
  5
14FAD
330
1A
100
AcDbEntity
  8
Visible (ISO)
100
AcDbLine
 10
6672.891376949142
 20
520.6841049734062
 30
0.0
 11
6416.891376949142
 21
520.6841049734062
 31
0.0
  0
LINE
  5
14FAE
330
1A
100
AcDbEntity
  8
Visible (ISO)
100
AcDbLine
 10
6416.891376949142
 20
515.6841049734062
 30
0.0
 11
6416.891376949142
 21
520.6841049734062
 31
0.0
  0
LINE
  5
14FAF
330
1A
100
AcDbEntity
  8
Visible (ISO)
100
AcDbLine
 10
6416.891376949142
 20
520.6841049734062
 30
0.0
 11
6376.891376949142
 21
520.6841049734108
 31
0.0
  0
LINE
  5
14FB0
330
1A
100
AcDbEntity
  8
Visible (ISO)
100
AcDbLine
 10
6376.891376949142
 20
515.6841049734119
 30
0.0
 11
6376.891376949142
 21
520.6841049734108
 31
0.0
  0
LINE
  5
14FB1
330
1A
100
AcDbEntity
  8
Hidden (ISO)
100
AcDbLine
 10
6384.891376949141
 20
450.68410497342
 30
0.0
 11
6384.891376949141
 21
455.6841049734201
 31
0.0
  0
LINE
  5
14FB2
330
1A
100
AcDbEntity
  8
Visible (ISO)
100
AcDbLine
 10
6672.891376949142
 20
450.6841049734061
 30
0.0
 11
6672.891376949142
 21
455.6841049734061
 31
0.0
  0
LINE
  5
14FB3
330
1A
100
AcDbEntity
  8
Visible (ISO)
100
AcDbLine
 10
6416.891376949142
 20
450.6841049734061
 30
0.0
 11
6416.891376949142
 21
455.6841049734061
 31
0.0
  0
LINE
  5
14FB4
330
1A
100
AcDbEntity
  8
Visible (ISO)
100
AcDbLine
 10
6672.891376949142
 20
450.6841049734061
 30
0.0
 11
6416.891376949142
 21
450.6841049734061
 31
0.0
  0
LINE
  5
14FB5
330
1A
100
AcDbEntity
  8
Visible (ISO)
100
AcDbLine
 10
6376.891376949142
 20
450.6841049734108
 30
0.0
 11
6376.891376949142
 21
455.6841049734107
 31
0.0
  0
LINE
  5
14FB6
330
1A
100
AcDbEntity
  8
Visible (ISO)
100
AcDbLine
 10
6416.891376949142
 20
450.6841049734061
 30
0.0
 11
6376.891376949142
 21
450.6841049734108
 31
0.0
  0
LINE
  5
14FB7
330
1A
100
AcDbEntity
  8
Visible (ISO)
100
AcDbLine
 10
6249.874239846628
 20
254.1395493370419
 30
0.0
 11
6250.874239846631
 21
254.1395493370419
 31
0.0
  0
LINE
  5
14FB8
330
1A
100
AcDbEntity
  8
Visible (ISO)
100
AcDbLine
 10
6250.874239846631
 20
246.1395493370419
 30
0.0
 11
6249.874239846628
 21
246.1395493370419
 31
0.0
  0
LINE
  5
14FB9
330
1A
100
AcDbEntity
  8
Visible (ISO)
100
AcDbLine
 10
6250.874239846631
 20
246.1395493370419
 30
0.0
 11
6250.874239846631
 21
254.1395493370419
 31
0.0
  0
LINE
  5
14FBA
330
1A
100
AcDbEntity
  8
Visible (ISO)
100
AcDbLine
 10
6190.874239846628
 20
254.1395493370419
 30
0.0
 11
6191.874239846629
 21
254.1395493370419
 31
0.0
  0
ARC
  5
14FBB
330
1A
100
AcDbEntity
  8
Visible (ISO)
100
AcDbCircle
 10
6249.874239846538
 20
315.139549337041
 30
0.0
 40
0.9999999999999964
100
AcDbArc
 50
0.0
 51
90.0
  0
ARC
  5
14FBC
330
1A
100
AcDbEntity
  8
Visible (ISO)
100
AcDbCircle
 10
6191.874239846538
 20
315.139549337041
 30
0.0
 40
0.9999999999999964
100
AcDbArc
 50
90.0
 51
180.0
  0
LINE
  5
14FBD
330
1A
100
AcDbEntity
  8
Visible (ISO)
100
AcDbLine
 10
6190.874239846628
 20
254.1395493370419
 30
0.0
 11
6190.874239846628
 21
246.1395493370419
 31
0.0
  0
LINE
  5
14FBE
330
1A
100
AcDbEntity
  8
Visible (ISO)
100
AcDbLine
 10
6191.874239846629
 20
246.1395493370419
 30
0.0
 11
6190.874239846628
 21
246.1395493370419
 31
0.0
  0
LINE
  5
14FBF
330
1A
100
AcDbEntity
  8
Visible (ISO)
100
AcDbLine
 10
6249.874239846628
 20
254.1395493370419
 30
0.0
 11
6191.874239846629
 21
254.1395493370419
 31
0.0
  0
LINE
  5
14FC0
330
1A
100
AcDbEntity
  8
Visible (ISO)
100
AcDbLine
 10
6250.874239846538
 20
300.139549337041
 30
0.0
 11
6250.874239846538
 21
315.139549337041
 31
0.0
  0
LINE
  5
14FC1
330
1A
100
AcDbEntity
  8
Visible (ISO)
100
AcDbLine
 10
6249.874239846538
 20
316.1395493370419
 30
0.0
 11
6191.874239846538
 21
316.1395493370419
 31
0.0
  0
LINE
  5
14FC2
330
1A
100
AcDbEntity
  8
Visible (ISO)
100
AcDbLine
 10
6190.874239846539
 20
315.139549337041
 30
0.0
 11
6190.874239846539
 21
300.1395493370419
 31
0.0
  0
LINE
  5
14FC3
330
1A
100
AcDbEntity
  8
Visible (ISO)
100
AcDbLine
 10
6249.874239846628
 20
246.1395493370419
 30
0.0
 11
6191.874239846629
 21
246.1395493370419
 31
0.0
  0
CIRCLE
  5
14FC4
330
1A
100
AcDbEntity
  8
Visible (ISO)
100
AcDbCircle
 10
6220.874239846538
 20
286.1395493370419
 30
0.0
 40
8.5
  0
LINE
  5
14FC5
330
1A
100
AcDbEntity
  8
Hidden (ISO)
100
AcDbLine
 10
6212.374239846624
 20
246.1395493370419
 30
0.0
 11
6212.374239846624
 21
254.1395493370419
 31
0.0
  0
LINE
  5
14FC6
330
1A
100
AcDbEntity
  8
Hidden (ISO)
100
AcDbLine
 10
6229.374239846624
 20
246.1395493370419
 30
0.0
 11
6229.374239846624
 21
254.1395493370419
 31
0.0
  0
LINE
  5
14FC7
330
1A
100
AcDbEntity
  8
Visible (ISO)
100
AcDbLine
 10
6185.87423984654
 20
300.139549337041
 30
0.0
 11
6185.874239846625
 21
258.139549337041
 31
0.0
  0
LINE
  5
14FC8
330
1A
100
AcDbEntity
  8
Visible (ISO)
100
AcDbLine
 10
6190.874239846625
 20
258.139549337041
 30
0.0
 11
6185.874239846625
 21
258.139549337041
 31
0.0
  0
LINE
  5
14FC9
330
1A
100
AcDbEntity
  8
Visible (ISO)
100
AcDbLine
 10
6190.874239846539
 20
300.139549337041
 30
0.0
 11
6190.874239846625
 21
258.139549337041
 31
0.0
  0
LINE
  5
14FCA
330
1A
100
AcDbEntity
  8
Visible (ISO)
100
AcDbLine
 10
6190.874239846539
 20
300.139549337041
 30
0.0
 11
6185.87423984654
 21
300.139549337041
 31
0.0
  0
LINE
  5
14FCB
330
1A
100
AcDbEntity
  8
Visible (ISO)
100
AcDbLine
 10
6185.874239846625
 20
258.139549337041
 30
0.0
 11
6185.874239846625
 21
250.139549337041
 31
0.0
  0
LINE
  5
14FCC
330
1A
100
AcDbEntity
  8
Visible (ISO)
100
AcDbLine
 10
6190.874239846625
 20
250.139549337041
 30
0.0
 11
6185.874239846625
 21
250.139549337041
 31
0.0
  0
LINE
  5
14FCD
330
1A
100
AcDbEntity
  8
Visible (ISO)
100
AcDbLine
 10
6190.874239846625
 20
258.139549337041
 30
0.0
 11
6190.874239846625
 21
254.1395493370419
 31
0.0
  0
LINE
  5
14FCE
330
1A
100
AcDbEntity
  8
Hidden (ISO)
100
AcDbLine
 10
6190.874239846536
 20
270.1395493370419
 30
0.0
 11
6185.874239846537
 21
270.1395493370419
 31
0.0
  0
LINE
  5
14FCF
330
1A
100
AcDbEntity
  8
Visible (ISO)
100
AcDbLine
 10
6250.874239846539
 20
300.139549337041
 30
0.0
 11
6250.874239846623
 21
258.139549337041
 31
0.0
  0
LINE
  5
14FD0
330
1A
100
AcDbEntity
  8
Visible (ISO)
100
AcDbLine
 10
6255.874239846625
 20
258.139549337041
 30
0.0
 11
6250.874239846623
 21
258.139549337041
 31
0.0
  0
LINE
  5
14FD1
330
1A
100
AcDbEntity
  8
Visible (ISO)
100
AcDbLine
 10
6255.874239846539
 20
300.139549337041
 30
0.0
 11
6255.874239846625
 21
258.139549337041
 31
0.0
  0
LINE
  5
14FD2
330
1A
100
AcDbEntity
  8
Visible (ISO)
100
AcDbLine
 10
6255.874239846539
 20
300.139549337041
 30
0.0
 11
6250.874239846539
 21
300.139549337041
 31
0.0
  0
LINE
  5
14FD3
330
1A
100
AcDbEntity
  8
Visible (ISO)
100
AcDbLine
 10
6250.874239846623
 20
258.139549337041
 30
0.0
 11
6250.874239846623
 21
254.1395493370419
 31
0.0
  0
LINE
  5
14FD4
330
1A
100
AcDbEntity
  8
Visible (ISO)
100
AcDbLine
 10
6255.874239846625
 20
250.139549337041
 30
0.0
 11
6250.874239846623
 21
250.139549337041
 31
0.0
  0
LINE
  5
14FD5
330
1A
100
AcDbEntity
  8
Visible (ISO)
100
AcDbLine
 10
6255.874239846625
 20
258.139549337041
 30
0.0
 11
6255.874239846625
 21
250.139549337041
 31
0.0
  0
LINE
  5
14FD6
330
1A
100
AcDbEntity
  8
Hidden (ISO)
100
AcDbLine
 10
6255.874239846537
 20
270.1395493370419
 30
0.0
 11
6250.874239846536
 21
270.1395493370419
 31
0.0
  0
LINE
  5
14FD7
330
1A
100
AcDbEntity
  8
Hidden (ISO)
100
AcDbLine
 10
6870.378227314335
 20
254.1395493370419
 30
0.0
 11
6930.378227314334
 21
254.1395493370419
 31
0.0
  0
LINE
  5
14FD8
330
1A
100
AcDbEntity
  8
Visible (ISO)
100
AcDbLine
 10
6870.378227314335
 20
246.1395493370419
 30
0.0
 11
6870.37822731433
 21
262.1395493370419
 31
0.0
  0
LINE
  5
14FD9
330
1A
100
AcDbEntity
  8
Visible (ISO)
100
AcDbLine
 10
6930.378227314334
 20
246.1395493370419
 30
0.0
 11
6930.37822731433
 21
262.1395493370419
 31
0.0
  0
LINE
  5
14FDA
330
1A
100
AcDbEntity
  8
Visible (ISO)
100
AcDbLine
 10
6930.378227314334
 20
246.1395493370419
 30
0.0
 11
6870.378227314335
 21
246.1395493370419
 31
0.0
  0
LINE
  5
14FDB
330
1A
100
AcDbEntity
  8
Visible (ISO)
100
AcDbLine
 10
6870.37822731433
 20
315.139549337041
 30
0.0
 11
6870.37822731433
 21
262.1395493370419
 31
0.0
  0
LINE
  5
14FDC
330
1A
100
AcDbEntity
  8
Visible (ISO)
100
AcDbLine
 10
6930.37822731433
 20
262.1395493370419
 30
0.0
 11
6930.37822731433
 21
315.139549337041
 31
0.0
  0
LINE
  5
14FDD
330
1A
100
AcDbEntity
  8
Visible (ISO)
100
AcDbLine
 10
6871.37822731433
 20
316.1395493370419
 30
0.0
 11
6929.378227314329
 21
316.1395493370419
 31
0.0
  0
ARC
  5
14FDE
330
1A
100
AcDbEntity
  8
Visible (ISO)
100
AcDbCircle
 10
6871.37822731433
 20
315.139549337041
 30
0.0
 40
0.9999999999999964
100
AcDbArc
 50
90.0
 51
180.0
  0
ARC
  5
14FDF
330
1A
100
AcDbEntity
  8
Visible (ISO)
100
AcDbCircle
 10
6929.378227314329
 20
315.139549337041
 30
0.0
 40
0.9999999999999964
100
AcDbArc
 50
0.0
 51
90.0
  0
CIRCLE
  5
14FE0
330
1A
100
AcDbEntity
  8
Visible (ISO)
100
AcDbCircle
 10
6900.37822731433
 20
286.1395493370419
 30
0.0
 40
8.500000000000001
  0
LINE
  5
14FE1
330
1A
100
AcDbEntity
  8
Hidden (ISO)
100
AcDbLine
 10
6891.878227314396
 20
246.1395493370419
 30
0.0
 11
6891.878227314396
 21
254.1395493370419
 31
0.0
  0
LINE
  5
14FE2
330
1A
100
AcDbEntity
  8
Hidden (ISO)
100
AcDbLine
 10
6908.878227314398
 20
246.1395493370419
 30
0.0
 11
6908.878227314398
 21
254.1395493370419
 31
0.0
  0
LINE
  5
14FE3
330
1A
100
AcDbEntity
  8
Hidden (ISO)
100
AcDbLine
 10
6930.378227314419
 20
258.139549337041
 30
0.0
 11
6935.378227314419
 21
258.139549337041
 31
0.0
  0
LINE
  5
14FE4
330
1A
100
AcDbEntity
  8
Visible (ISO)
100
AcDbLine
 10
6930.378227314344
 20
250.139549337041
 30
0.0
 11
6935.378227314342
 21
250.139549337041
 31
0.0
  0
LINE
  5
14FE5
330
1A
100
AcDbEntity
  8
Visible (ISO)
100
AcDbLine
 10
6935.378227314342
 20
250.139549337041
 30
0.0
 11
6935.37822731433
 21
270.1395493370419
 31
0.0
  0
LINE
  5
14FE6
330
1A
100
AcDbEntity
  8
Visible (ISO)
100
AcDbLine
 10
6930.378227314331
 20
270.1395493370419
 30
0.0
 11
6935.37822731433
 21
270.1395493370419
 31
0.0
  0
LINE
  5
14FE7
330
1A
100
AcDbEntity
  8
Visible (ISO)
100
AcDbLine
 10
6935.37822731433
 20
270.1395493370419
 30
0.0
 11
6935.37822731433
 21
300.139549337041
 31
0.0
  0
LINE
  5
14FE8
330
1A
100
AcDbEntity
  8
Visible (ISO)
100
AcDbLine
 10
6930.378227314331
 20
300.139549337041
 30
0.0
 11
6935.37822731433
 21
300.139549337041
 31
0.0
  0
LINE
  5
14FE9
330
1A
100
AcDbEntity
  8
Hidden (ISO)
100
AcDbLine
 10
6865.378227314419
 20
258.139549337041
 30
0.0
 11
6870.378227314418
 21
258.139549337041
 31
0.0
  0
LINE
  5
14FEA
330
1A
100
AcDbEntity
  8
Visible (ISO)
100
AcDbLine
 10
6865.378227314343
 20
250.139549337041
 30
0.0
 11
6870.378227314343
 21
250.139549337041
 31
0.0
  0
LINE
  5
14FEB
330
1A
100
AcDbEntity
  8
Visible (ISO)
100
AcDbLine
 10
6865.378227314332
 20
270.1395493370419
 30
0.0
 11
6870.37822731433
 21
270.1395493370419
 31
0.0
  0
LINE
  5
14FEC
330
1A
100
AcDbEntity
  8
Visible (ISO)
100
AcDbLine
 10
6865.378227314343
 20
250.139549337041
 30
0.0
 11
6865.378227314332
 21
270.1395493370419
 31
0.0
  0
LINE
  5
14FED
330
1A
100
AcDbEntity
  8
Visible (ISO)
100
AcDbLine
 10
6865.378227314332
 20
300.139549337041
 30
0.0
 11
6870.37822731433
 21
300.139549337041
 31
0.0
  0
LINE
  5
14FEE
330
1A
100
AcDbEntity
  8
Visible (ISO)
100
AcDbLine
 10
6865.378227314332
 20
270.1395493370419
 30
0.0
 11
6865.378227314332
 21
300.139549337041
 31
0.0
  0
ELLIPSE
  5
14FEF
330
1A
100
AcDbEntity
  8
Visible (ISO)
100
AcDbEllipse
 10
5803.366588055638
 20
292.9560357925354
 30
0.0
 11
-8.499999999999966
 21
-0.0000000000005088
 31
0.0
210
0.0
220
0.0
230
1.0
 40
0.5758617009853113
 41
3.873232981763691
 42
5.551544979005146
  0
ELLIPSE
  5
14FF0
330
1A
100
AcDbEntity
  8
Visible (ISO)
100
AcDbEllipse
 10
5803.366588055638
 20
299.4964127912756
 30
0.0
 11
-8.499999999999998
 21
0.0000000000005021
 31
0.0
210
0.0
220
0.0
230
1.0
 40
0.5758617009853118
 41
0.0
 42
6.283185307179584
  0
ELLIPSE
  5
14FF1
330
1A
100
AcDbEntity
  8
Visible (ISO)
100
AcDbEllipse
 10
5828.11532539717
 20
278.7041858098056
 30
0.0
 11
-8.499999999999998
 21
-0.0000000000005088
 31
0.0
210
0.0
220
0.0
230
1.0
 40
0.5758617009853114
 41
3.873232981763691
 42
5.551544979005143
  0
ELLIPSE
  5
14FF2
330
1A
100
AcDbEntity
  8
Visible (ISO)
100
AcDbEllipse
 10
5828.11532539717
 20
285.2445628085459
 30
0.0
 11
-8.499999999999998
 21
0.0000000000005021
 31
0.0
210
0.0
220
0.0
230
1.0
 40
0.5758617009853118
 41
0.0
 42
6.283185307179584
  0
ELLIPSE
  5
14FF3
330
1A
100
AcDbEntity
  8
Visible (ISO)
100
AcDbEllipse
 10
5852.864062738702
 20
264.452335827076
 30
0.0
 11
-8.499999999999998
 21
-0.0000000000005088
 31
0.0
210
0.0
220
0.0
230
1.0
 40
0.5758617009853114
 41
3.873232981763691
 42
5.551544979005143
  0
ELLIPSE
  5
14FF4
330
1A
100
AcDbEntity
  8
Visible (ISO)
100
AcDbEllipse
 10
5852.864062738702
 20
270.9927128258164
 30
0.0
 11
-8.499999999999998
 21
0.0000000000005021
 31
0.0
210
0.0
220
0.0
230
1.0
 40
0.5758617009853118
 41
0.0
 42
6.283185307179584
  0
ELLIPSE
  5
14FF5
330
1A
100
AcDbEntity
  8
Visible (ISO)
100
AcDbEllipse
 10
5890.340722141589
 20
273.0286913947814
 30
0.0
 11
1.000000000000007
 21
0.0000000000000001
 31
0.0
210
0.0
220
0.0
230
1.0
 40
0.5758617009853114
 41
5.497787143782184
 42
7.068583470577065
  0
LINE
  5
14FF6
330
1A
100
AcDbEntity
  8
Visible Narrow (ISO)
100
AcDbLine
 10
5891.047828922776
 20
272.621495680989
 30
0.0
 11
5891.047828922776
 21
266.0811186822487
 31
0.0
  0
ELLIPSE
  5
14FF7
330
1A
100
AcDbEntity
  8
Visible (ISO)
100
AcDbEllipse
 10
5890.340722141589
 20
266.488314396041
 30
0.0
 11
0.9999999999998722
 21
0.0000000000000002
 31
0.0
210
0.0
220
0.0
230
1.0
 40
0.5758617009853118
 41
5.497787143782237
 42
6.283185307179584
  0
ELLIPSE
  5
14FF8
330
1A
100
AcDbEntity
  8
Visible (ISO)
100
AcDbEllipse
 10
5849.328528832773
 20
249.4113399948226
 30
0.0
 11
-1.000000000000011
 21
0.0000000000000589
 31
0.0
210
0.0
220
0.0
230
1.0
 40
0.5758617009853118
 41
0.7853981633978952
 42
2.356194490192768
  0
ELLIPSE
  5
14FF9
330
1A
100
AcDbEntity
  8
Visible (ISO)
100
AcDbEllipse
 10
5664.773658943047
 20
452.7944987099108
 30
0.0
 11
0.4990322115841812
 21
0.8665834361453017
 31
0.0
210
0.0
220
0.0
230
0.9999999999999998
 40
0.5780931159156392
 41
0.0
 42
0.7834644549743574
  0
LINE
  5
14FFA
330
1A
100
AcDbEntity
  8
Visible Narrow (ISO)
100
AcDbLine
 10
5664.773658943047
 20
453.6120458347538
 30
0.0
 11
5670.43051319254
 21
450.3544801244157
 31
0.0
  0
ELLIPSE
  5
14FFB
330
1A
100
AcDbEntity
  8
Visible (ISO)
100
AcDbEllipse
 10
5670.43051319254
 20
449.5369329995728
 30
0.0
 11
0.4990322115841808
 21
0.8665834361452986
 31
0.0
210
0.0
220
0.0
230
1.0
 40
0.5780931159156392
 41
5.495853435359045
 42
7.066649762154002
  0
ELLIPSE
  5
14FFC
330
1A
100
AcDbEntity
  8
Visible (ISO)
100
AcDbEllipse
 10
5629.418319883725
 20
425.919581599614
 30
0.0
 11
0.4990322115842324
 21
0.8665834361452692
 31
0.0
210
0.0
220
0.0
230
1.0
 40
0.578093115915639
 41
0.7834644549746069
 42
2.354260781769681
  0
LINE
  5
14FFD
330
1A
100
AcDbEntity
  8
Visible Narrow (ISO)
100
AcDbLine
 10
5629.418319883725
 20
426.7371287244567
 30
0.0
 11
5623.761465634233
 21
429.9946944347952
 31
0.0
  0
ELLIPSE
  5
14FFE
330
1A
100
AcDbEntity
  8
Visible (ISO)
100
AcDbEllipse
 10
5623.761465634233
 20
429.1771473099522
 30
0.0
 11
-0.499032211584129
 21
-0.866583436145329
 31
0.0
210
0.0
220
0.0
230
0.9999999999999998
 40
0.578093115915639
 41
3.925057108563968
 42
5.495853435358877
  0
LINE
  5
14FFF
330
1A
100
AcDbEntity
  8
Visible Narrow (ISO)
100
AcDbLine
 10
5623.054358853047
 20
428.7699515961598
 30
0.0
 11
5628.71121310254
 21
425.5123858858218
 31
0.0
  0
LINE
  5
15000
330
1A
100
AcDbEntity
  8
Visible Narrow (ISO)
100
AcDbLine
 10
5848.621422051588
 20
249.00414428103
 30
0.0
 11
5848.621422051588
 21
242.4637672822898
 31
0.0
  0
ELLIPSE
  5
15001
330
1A
100
AcDbEntity
  8
Visible (ISO)
100
AcDbEllipse
 10
5849.328528832773
 20
242.870962996082
 30
0.0
 11
1.000000000000005
 21
0.0000000000000596
 31
0.0
210
0.0
220
0.0
230
1.0
 40
0.5758617009853121
 41
3.926990816987098
 42
5.497787143781933
  0
LINE
  5
15002
330
1A
100
AcDbEntity
  8
Visible Narrow (ISO)
100
AcDbLine
 10
5850.035635613963
 20
242.4637672822898
 30
0.0
 11
5850.035635613963
 21
249.0041442810302
 31
0.0
  0
LINE
  5
15003
330
1A
100
AcDbEntity
  8
Visible (ISO)
100
AcDbLine
 10
5891.340722141589
 20
266.488314396041
 30
0.0
 11
5891.340722141589
 21
273.0286913947814
 31
0.0
  0
LINE
  5
15004
330
1A
100
AcDbEntity
  8
Visible (ISO)
100
AcDbLine
 10
5670.929545404124
 20
450.4035164357187
 30
0.0
 11
5665.272691154632
 21
453.6610821460564
 31
0.0
  0
LINE
  5
15005
330
1A
100
AcDbEntity
  8
Visible (ISO)
100
AcDbLine
 10
5891.047828922776
 20
273.4358871085735
 30
0.0
 11
5676.794474223219
 21
396.8161883876323
 31
0.0
  0
LINE
  5
15006
330
1A
100
AcDbEntity
  8
Visible (ISO)
100
AcDbLine
 10
5634.368067352032
 20
372.3844455600886
 30
0.0
 11
5637.930895280081
 21
370.3327494091252
 31
0.0
  0
LINE
  5
15007
330
1A
100
AcDbEntity
  8
Visible (ISO)
100
AcDbLine
 10
5835.186393209043
 20
256.7408628430833
 30
0.0
 11
5848.621422051588
 21
249.00414428103
 31
0.0
  0
LINE
  5
15008
330
1A
100
AcDbEntity
  8
Visible (ISO)
100
AcDbLine
 10
5891.047828922776
 20
272.621495680989
 30
0.0
 11
5850.035635613963
 21
249.0041442810302
 31
0.0
  0
LINE
  5
15009
330
1A
100
AcDbEntity
  8
Visible (ISO)
100
AcDbLine
 10
5671.137619973727
 20
406.6141310967108
 30
0.0
 11
5671.137619973727
 21
449.9441287133656
 31
0.0
  0
LINE
  5
1500A
330
1A
100
AcDbEntity
  8
Visible (ISO)
100
AcDbLine
 10
5670.43051319254
 20
450.3544801244157
 30
0.0
 11
5629.418319883725
 21
426.7371287244567
 31
0.0
  0
LINE
  5
1500B
330
1A
100
AcDbEntity
  8
Visible (ISO)
100
AcDbLine
 10
5628.71121310254
 20
425.5123858858218
 30
0.0
 11
5628.71121310254
 21
413.2491790131838
 31
0.0
  0
LINE
  5
1500C
330
1A
100
AcDbEntity
  8
Visible (ISO)
100
AcDbLine
 10
5623.054358853047
 20
385.4399539795054
 30
0.0
 11
5623.054358853047
 21
387.4996002779025
 31
0.0
  0
LINE
  5
1500D
330
1A
100
AcDbEntity
  8
Visible (ISO)
100
AcDbLine
 10
5623.054358853047
 20
413.2491790131831
 30
0.0
 11
5623.054358853047
 21
428.7699515961598
 31
0.0
  0
LINE
  5
1500E
330
1A
100
AcDbEntity
  8
Visible (ISO)
100
AcDbLine
 10
5848.621422051588
 20
242.4637672822898
 30
0.0
 11
5832.34700617065
 21
251.8355800940278
 31
0.0
  0
LINE
  5
1500F
330
1A
100
AcDbEntity
  8
Visible (ISO)
100
AcDbLine
 10
5649.244603779068
 20
357.2772409897086
 30
0.0
 11
5634.368067352032
 21
365.8440685613484
 31
0.0
  0
LINE
  5
15010
330
1A
100
AcDbEntity
  8
Visible (ISO)
100
AcDbLine
 10
5891.047828922776
 20
266.0811186822487
 30
0.0
 11
5850.035635613963
 21
242.4637672822898
 31
0.0
  0
LINE
  5
15011
330
1A
100
AcDbEntity
  8
Visible (ISO)
100
AcDbLine
 10
5664.773658943047
 20
453.6120458347538
 30
0.0
 11
5623.761465634233
 21
429.9946944347952
 31
0.0
  0
LINE
  5
15012
330
1A
100
AcDbEntity
  8
Visible Narrow (ISO)
100
AcDbLine
 10
5676.794474223219
 20
396.8161883876323
 30
0.0
 11
5662.489942749482
 21
388.5787565613654
 31
0.0
  0
LINE
  5
15013
330
1A
100
AcDbEntity
  8
Visible Narrow (ISO)
100
AcDbLine
 10
5635.558740626971
 20
373.0701086975139
 30
0.0
 11
5634.368067352032
 21
372.3844455600886
 31
0.0
  0
ELLIPSE
  5
15014
330
1A
100
AcDbEntity
  8
Visible (ISO)
100
AcDbEllipse
 10
5676.794474223219
 20
403.3565653863727
 30
0.0
 11
3.992257692675647
 21
-6.932667489161147
 31
0.0
210
0.0
220
0.0
230
1.0
 40
0.5780931159158107
 41
3.928924525409863
 42
5.499720852204786
  0
LINE
  5
15015
330
1A
100
AcDbEntity
  8
Visible Narrow (ISO)
100
AcDbLine
 10
5652.601907247529
 20
395.9401240372244
 30
0.0
 11
5671.137619973727
 21
406.6141310967108
 31
0.0
  0
ELLIPSE
  5
15016
330
1A
100
AcDbEntity
  8
Visible (ISO)
100
AcDbEllipse
 10
5634.368067352032
 20
378.9248225588289
 30
0.0
 11
7.984515385351312
 21
-13.86533497832231
 31
0.0
210
0.0
220
0.0
230
1.0
 40
0.5780931159158105
 41
3.928924525409886
 42
5.499720852204776
  0
ELLIPSE
  5
15017
330
1A
100
AcDbEntity
  8
Visible (ISO)
100
AcDbEllipse
 10
5634.368067352032
 20
378.9248225588289
 30
0.0
 11
3.992257692675647
 21
-6.932667489161143
 31
0.0
210
0.0
220
0.0
230
1.0
 40
0.5780931159158108
 41
4.124826433661024
 42
5.499720852204835
  0
ELLIPSE
  5
15018
330
1A
100
AcDbEntity
  8
Visible (ISO)
100
AcDbEllipse
 10
5649.924416538134
 20
414.01939067916
 30
0.0
 11
-4.241773798465549
 21
-7.365959207235065
 31
0.0
210
0.0
220
0.0
230
1.0
 40
0.578093115915639
 41
0.0
 42
6.283185307179584
  0
ELLIPSE
  5
15019
330
1A
100
AcDbEntity
  8
Visible (ISO)
100
AcDbEllipse
 10
5644.267562288639
 20
417.2769563894981
 30
0.0
 11
4.241773798465106
 21
7.365959207235325
 31
0.0
210
0.0
220
0.0
230
0.9999999999999998
 40
0.578093115915639
 41
3.86805471005133
 42
5.556723250717511
  0
LINE
  5
1501A
330
1A
100
AcDbEntity
  8
Visible (ISO)
100
AcDbLine
 10
5628.004106321355
 20
409.5844175890528
 30
0.0
 11
5831.65085930311
 21
257.9750727734916
 31
0.0
  0
LINE
  5
1501B
330
1A
100
AcDbEntity
  8
Visible (ISO)
100
AcDbLine
 10
5835.186393209042
 20
260.0110513424533
 30
0.0
 11
5831.65085930311
 21
257.9750727734916
 31
0.0
  0
LINE
  5
1501C
330
1A
100
AcDbEntity
  8
Visible (ISO)
100
AcDbLine
 10
5631.539640227288
 20
411.6203961580144
 30
0.0
 11
5835.186393209042
 21
260.0110513424533
 31
0.0
  0
LINE
  5
1501D
330
1A
100
AcDbEntity
  8
Visible (ISO)
100
AcDbLine
 10
5631.539640227288
 20
411.6203961580144
 30
0.0
 11
5628.004106321355
 21
409.5844175890528
 31
0.0
  0
LINE
  5
1501E
330
1A
100
AcDbEntity
  8
Visible (ISO)
100
AcDbLine
 10
5831.65085930311
 20
257.9750727734916
 30
0.0
 11
5831.65085930311
 21
251.4346957747512
 31
0.0
  0
LINE
  5
1501F
330
1A
100
AcDbEntity
  8
Visible (ISO)
100
AcDbLine
 10
5835.186393209042
 20
253.470674343713
 30
0.0
 11
5831.65085930311
 21
251.4346957747512
 31
0.0
  0
LINE
  5
15020
330
1A
100
AcDbEntity
  8
Visible (ISO)
100
AcDbLine
 10
5835.186393209042
 20
260.0110513424533
 30
0.0
 11
5835.186393209042
 21
253.470674343713
 31
0.0
  0
LINE
  5
15021
330
1A
100
AcDbEntity
  8
Visible (ISO)
100
AcDbLine
 10
5831.65085930311
 20
251.4346957747512
 30
0.0
 11
5650.631523319328
 21
355.676798505573
 31
0.0
  0
LINE
  5
15022
330
1A
100
AcDbEntity
  8
Visible (ISO)
100
AcDbLine
 10
5650.631523319328
 20
355.676798505573
 30
0.0
 11
5622.347252071861
 21
388.3155695541148
 31
0.0
  0
LINE
  5
15023
330
1A
100
AcDbEntity
  8
Visible (ISO)
100
AcDbLine
 10
5622.347252071861
 20
388.3155695541148
 30
0.0
 11
5622.347252071861
 21
412.841983299391
 31
0.0
  0
LINE
  5
15024
330
1A
100
AcDbEntity
  8
Visible (ISO)
100
AcDbLine
 10
5625.882785977793
 20
414.8779618683526
 30
0.0
 11
5622.347252071861
 21
412.841983299391
 31
0.0
  0
LINE
  5
15025
330
1A
100
AcDbEntity
  8
Visible (ISO)
100
AcDbLine
 10
5622.347252071861
 20
412.841983299391
 30
0.0
 11
5628.004106321355
 21
409.5844175890528
 31
0.0
  0
LINE
  5
15026
330
1A
100
AcDbEntity
  8
Visible (ISO)
100
AcDbLine
 10
5625.882785977793
 20
414.8779618683526
 30
0.0
 11
5631.539640227288
 21
411.6203961580144
 31
0.0
  0
LINE
  5
15027
330
1A
100
AcDbEntity
  8
Visible (ISO)
100
AcDbLine
 10
5673.966047098473
 20
436.0521389855583
 30
0.0
 11
5877.612800080229
 21
284.4427941699969
 31
0.0
  0
LINE
  5
15028
330
1A
100
AcDbEntity
  8
Visible (ISO)
100
AcDbLine
 10
5881.14833398616
 20
286.4787727389589
 30
0.0
 11
5877.612800080229
 21
284.4427941699969
 31
0.0
  0
LINE
  5
15029
330
1A
100
AcDbEntity
  8
Visible (ISO)
100
AcDbLine
 10
5677.501581004405
 20
438.0881175545201
 30
0.0
 11
5881.14833398616
 21
286.4787727389589
 31
0.0
  0
LINE
  5
1502A
330
1A
100
AcDbEntity
  8
Visible (ISO)
100
AcDbLine
 10
5677.501581004405
 20
438.0881175545201
 30
0.0
 11
5673.966047098473
 21
436.0521389855583
 31
0.0
  0
LINE
  5
1502B
330
1A
100
AcDbEntity
  8
Visible (ISO)
100
AcDbLine
 10
5877.612800080229
 20
284.4427941699969
 30
0.0
 11
5877.612800080229
 21
281.1726056706268
 31
0.0
  0
LINE
  5
1502C
330
1A
100
AcDbEntity
  8
Visible (ISO)
100
AcDbLine
 10
5881.14833398616
 20
279.938395740219
 30
0.0
 11
5880.452187118621
 21
279.5375114209426
 31
0.0
  0
LINE
  5
1502D
330
1A
100
AcDbEntity
  8
Visible (ISO)
100
AcDbLine
 10
5881.14833398616
 20
286.4787727389589
 30
0.0
 11
5881.14833398616
 21
279.938395740219
 31
0.0
  0
LINE
  5
1502E
330
1A
100
AcDbEntity
  8
Visible (ISO)
100
AcDbLine
 10
5690.936609846953
 20
388.672274111787
 30
0.0
 11
5671.137619973727
 21
411.519413845766
 31
0.0
  0
LINE
  5
1502F
330
1A
100
AcDbEntity
  8
Visible (ISO)
100
AcDbLine
 10
5671.844726754912
 20
441.3456832648583
 30
0.0
 11
5671.137619973727
 21
440.9384875510668
 31
0.0
  0
LINE
  5
15030
330
1A
100
AcDbEntity
  8
Visible (ISO)
100
AcDbLine
 10
5671.137619973727
 20
437.6809218407275
 30
0.0
 11
5673.966047098473
 21
436.0521389855583
 31
0.0
  0
LINE
  5
15031
330
1A
100
AcDbEntity
  8
Visible (ISO)
100
AcDbLine
 10
5671.844726754912
 20
441.3456832648583
 30
0.0
 11
5677.501581004405
 21
438.0881175545201
 31
0.0
  0
VIEWPORT
  5
22
102
{ACAD_XDICTIONARY
360
275DB
102
}
330
17
100
AcDbEntity
 67
     1
  8
0
100
AcDbViewport
 10
144.6424255371093
 20
100.7639141082763
 30
0.0
 40
346.4348652353054
 41
222.1517806396485
 68
     1
 69
     1
 12
144.6424255371093
 22
100.7639141082763
 13
0.0
 23
0.0
 14
10.0
 24
10.0
 15
10.0
 25
10.0
 16
0.0
 26
0.0
 36
1.0
 17
0.0
 27
0.0
 37
0.0
 42
50.0
 43
0.0
 44
0.0
 45
222.1517806396485
 50
0.0
 51
0.0
 72
   100
 90
    32800
  1

281
     0
 71
     1
 74
     0
110
0.0
120
0.0
130
0.0
111
1.0
121
0.0
131
0.0
112
0.0
122
1.0
132
0.0
 79
     0
146
0.0
  0
VIEWPORT
  5
A1
102
{ACAD_XDICTIONARY
360
275E0
102
}
330
17
100
AcDbEntity
 67
     1
  8
0
100
AcDbViewport
 10
139.8164286613464
 20
100.7850790023803
 30
0.0
 40
223.7062858581543
 41
161.2561264038086
 68
     2
 69
     2
 12
1000.0
 22
1000.0
 13
0.0
 23
0.0
 14
67.0
 24
67.0
 15
67.0
 25
67.0
 16
0.0
 26
0.0
 36
1.0
 17
0.0
 27
0.0
 37
0.0
 42
50.0
 43
0.0
 44
0.0
 45
2025.263157894737
 50
0.0
 51
0.0
 72
   100
 90
    33312
  1

281
     0
 71
     1
 74
     0
110
0.0
120
0.0
130
0.0
111
1.0
121
0.0
131
0.0
112
0.0
122
1.0
132
0.0
 79
     0
146
0.0
  0
ENDSEC
  0
SECTION
  2
OBJECTS
  0
DICTIONARY
  5
C
330
0
100
AcDbDictionary
281
     1
  3
ACAD_COLOR
350
1C4
  3
ACAD_GROUP
350
D
  3
ACAD_LAYOUT
350
91
  3
ACAD_MATERIAL
350
197
  3
ACAD_MLEADERSTYLE
350
1D9
  3
ACAD_MLINESTYLE
350
E
  3
ACAD_PLOTSETTINGS
350
92
  3
ACAD_PLOTSTYLENAME
350
8F
  3
ACAD_SCALELIST
350
1C7
  3
ACAD_TABLESTYLE
350
1C5
  3
ACAD_VISUALSTYLE
350
1B0
  3
ACDB_RECOMPOSE_DATA
350
275D9
  3
ACDBVARIABLEDICTIONARY
350
5D
  3
DWGPROPS
350
275DA
  0
DICTIONARY
  5
141C8
330
8
100
AcDbDictionary
280
     1
281
     1
  0
DICTIONARY
  5
1E7
330
2
100
AcDbDictionary
280
     1
281
     1
  3
ACAD_LAYERSTATES
360
1E8
  0
DICTIONARY
  5
141B5
330
F
100
AcDbDictionary
280
     1
281
     1
  3
ADSK_XREC_LAYER_RECONCILED
360
141B6
  0
DICTIONARY
  5
141B7
330
83
100
AcDbDictionary
280
     1
281
     1
  3
ADSK_XREC_LAYER_RECONCILED
360
141B8
  0
DICTIONARY
  5
141B9
330
84
100
AcDbDictionary
280
     1
281
     1
  3
ADSK_XREC_LAYER_RECONCILED
360
141BA
  0
DICTIONARY
  5
141BB
330
85
100
AcDbDictionary
280
     1
281
     1
  3
ADSK_XREC_LAYER_RECONCILED
360
141BC
  0
DICTIONARY
  5
141BD
330
86
100
AcDbDictionary
280
     1
281
     1
  3
ADSK_XREC_LAYER_RECONCILED
360
141BE
  0
DICTIONARY
  5
141BF
330
98
100
AcDbDictionary
280
     1
281
     1
  3
ADSK_XREC_LAYER_RECONCILED
360
141C0
  0
DICTIONARY
  5
1E0
330
1DF
100
AcDbDictionary
280
     1
281
     1
  3
ADSK_XREC_LAYER_RECONCILED
360
141C1
  0
DICTIONARY
  5
1E2
330
1E1
100
AcDbDictionary
280
     1
281
     1
  3
ADSK_XREC_LAYER_RECONCILED
360
141C2
  0
DICTIONARY
  5
1E4
330
1E3
100
AcDbDictionary
280
     1
281
     1
  3
ADSK_XREC_LAYER_RECONCILED
360
141C3
  0
DICTIONARY
  5
1E6
330
1E5
100
AcDbDictionary
280
     1
281
     1
  3
ADSK_XREC_LAYER_RECONCILED
360
141C4
  0
DICTIONARY
  5
154D5
330
1A
100
AcDbDictionary
280
     1
281
     1
  3
ACAD_SORTENTS
360
154D6
  0
DICTIONARY
  5
275DB
330
22
100
AcDbDictionary
280
     1
281
     1
  3
ACAD_XREC_ROUNDTRIP
360
275DC
  0
DICTIONARY
  5
275E0
330
A1
100
AcDbDictionary
280
     1
281
     1
  3
ACAD_XREC_ROUNDTRIP
360
275E1
  0
DICTIONARY
  5
1C4
102
{ACAD_REACTORS
330
C
102
}
330
C
100
AcDbDictionary
281
     1
  0
DICTIONARY
  5
D
102
{ACAD_REACTORS
330
C
102
}
330
C
100
AcDbDictionary
281
     1
  0
DICTIONARY
  5
91
102
{ACAD_REACTORS
330
C
102
}
330
C
100
AcDbDictionary
281
     1
  3
Layout1
350
94
  3
Model
350
93
  0
DICTIONARY
  5
197
102
{ACAD_REACTORS
330
C
102
}
330
C
100
AcDbDictionary
281
     1
  3
ByBlock
350
1A0
  3
ByLayer
350
198
  3
Global
350
1A8
  0
DICTIONARY
  5
1D9
102
{ACAD_REACTORS
330
C
102
}
330
C
100
AcDbDictionary
281
     1
  3
Standard
350
1DA
  0
DICTIONARY
  5
E
102
{ACAD_REACTORS
330
C
102
}
330
C
100
AcDbDictionary
281
     1
  3
STANDARD
350
13
  0
DICTIONARY
  5
92
102
{ACAD_REACTORS
330
C
102
}
330
C
100
AcDbDictionary
281
     1
  0
ACDBDICTIONARYWDFLT
  5
8F
102
{ACAD_REACTORS
330
C
102
}
330
C
100
AcDbDictionary
281
     1
  3
Normal
350
90
100
AcDbDictionaryWithDefault
340
90
  0
DICTIONARY
  5
1C7
102
{ACAD_REACTORS
330
C
102
}
330
C
100
AcDbDictionary
281
     1
  3
A0
350
1C8
  3
A1
350
1C9
  3
A2
350
1CA
  3
A3
350
1CB
  3
A4
350
1CC
  3
A5
350
1CD
  3
A6
350
1CE
  3
A7
350
1CF
  3
A8
350
1D0
  3
A9
350
1D1
  3
B0
350
1D2
  3
B1
350
1D3
  3
B2
350
1D4
  3
B3
350
1D5
  3
B4
350
1D6
  3
B5
350
1D7
  3
B6
350
1D8
  0
DICTIONARY
  5
1C5
102
{ACAD_REACTORS
330
C
102
}
330
C
100
AcDbDictionary
281
     1
  3
Standard
350
1C6
  0
DICTIONARY
  5
1B0
102
{ACAD_REACTORS
330
C
102
}
330
C
100
AcDbDictionary
281
     1
  3
2dWireframe
350
1B6
  3
3D Hidden
350
1B8
  3
3dWireframe
350
1B7
  3
Basic
350
1B5
  3
Brighten
350
1BC
  3
ColorChange
350
1C0
  3
Conceptual
350
1B9
  3
Dim
350
1BB
  3
EdgeColorOff
350
1C3
  3
Facepattern
350
1BF
  3
Flat
350
1B1
  3
FlatWithEdges
350
1B2
  3
Gouraud
350
1B3
  3
GouraudWithEdges
350
1B4
  3
JitterOff
350
1C1
  3
Linepattern
350
1BE
  3
OverhangOff
350
1C2
  3
Realistic
350
1BA
  3
Thicken
350
1BD
  0
XRECORD
  5
275D9
102
{ACAD_REACTORS
330
C
102
}
330
C
100
AcDbXrecord
280
     1
 90
        1
330
1C6
330
64E6
330
64E7
330
64F0
330
64F1
330
64F2
330
64F5
330
64F6
330
6501
330
6502
330
6503
330
6506
330
6507
  0
DICTIONARY
  5
5D
102
{ACAD_REACTORS
330
C
102
}
330
C
100
AcDbDictionary
281
     1
  3
CANNOSCALE
350
141FD
  3
CMLEADERSTYLE
350
141FC
  3
CTABLESTYLE
350
141FB
  3
DIMADEC
350
5E
  3
DIMASSOC
350
14416
  3
INDEXCTL
350
14415
  3
LAYEREVAL
350
149FB
  3
LAYERNOTIFY
350
149FC
  3
LIGHTINGUNITS
350
149FA
  3
MSLTSCALE
350
149F9
  3
SORTENTS
350
14414
  3
XCLIPFRAME
350
275D7
  0
XRECORD
  5
275DA
102
{ACAD_REACTORS
330
C
102
}
330
C
100
AcDbXrecord
280
     1
  1
DWGPROPS COOKIE
  2

  3

  4

  6

  7

  8
Estacio cad1
  9

300
=
301
=
302
=
303
=
304
=
305
=
306
=
307
=
308
=
309
=
 40
0.8802121874999999
 41
2455468.465042303
 42
2458249.507719965
  1

 90
        0
  0
DICTIONARY
  5
1E8
102
{ACAD_REACTORS
330
1E7
102
}
330
1E7
100
AcDbDictionary
281
     1
  0
XRECORD
  5
141B6
102
{ACAD_REACTORS
330
141B5
102
}
330
141B5
100
AcDbXrecord
280
     1
290
     1
  0
XRECORD
  5
141B8
102
{ACAD_REACTORS
330
141B7
102
}
330
141B7
100
AcDbXrecord
280
     1
290
     1
  0
XRECORD
  5
141BA
102
{ACAD_REACTORS
330
141B9
102
}
330
141B9
100
AcDbXrecord
280
     1
290
     1
  0
XRECORD
  5
141BC
102
{ACAD_REACTORS
330
141BB
102
}
330
141BB
100
AcDbXrecord
280
     1
290
     1
  0
XRECORD
  5
141BE
102
{ACAD_REACTORS
330
141BD
102
}
330
141BD
100
AcDbXrecord
280
     1
290
     1
  0
XRECORD
  5
141C0
102
{ACAD_REACTORS
330
141BF
102
}
330
141BF
100
AcDbXrecord
280
     1
290
     1
  0
XRECORD
  5
141C1
102
{ACAD_REACTORS
330
1E0
102
}
330
1E0
100
AcDbXrecord
280
     1
290
     1
  0
XRECORD
  5
141C2
102
{ACAD_REACTORS
330
1E2
102
}
330
1E2
100
AcDbXrecord
280
     1
290
     1
  0
XRECORD
  5
141C3
102
{ACAD_REACTORS
330
1E4
102
}
330
1E4
100
AcDbXrecord
280
     1
290
     1
  0
XRECORD
  5
141C4
102
{ACAD_REACTORS
330
1E6
102
}
330
1E6
100
AcDbXrecord
280
     1
290
     1
  0
SORTENTSTABLE
  5
154D6
102
{ACAD_REACTORS
330
154D5
102
}
330
154D5
100
AcDbSortentsTable
330
1A
331
14FCA
  5
14FCA
331
14FB5
  5
14FB5
331
14CBF
  5
14CBF
331
14DD7
  5
14DD7
331
15001
  5
15001
331
14FEC
  5
14FEC
331
14DDD
  5
14DDD
331
14DF2
  5
14DF2
331
15007
  5
15007
331
14E1B
  5
14E1B
331
14DF8
  5
14DF8
331
15022
  5
15022
331
1500D
  5
1500D
331
14C14
  5
14C14
331
14BFF
  5
14BFF
331
14E21
  5
14E21
331
14C4B
  5
14C4B
331
14DFE
  5
14DFE
331
15028
  5
15028
331
14C1A
  5
14C1A
331
14E3C
  5
14E3C
331
14E27
  5
14E27
331
14C51
  5
14C51
331
1502E
  5
1502E
331
14C35
  5
14C35
331
14E42
  5
14E42
331
14F62
  5
14F62
331
14C6C
  5
14C6C
331
14C57
  5
14C57
331
14C3B
  5
14C3B
331
14E5D
  5
14E5D
331
64E1
  5
64E1
331
14F7D
  5
14F7D
331
14C72
  5
14C72
331
14E78
  5
14E78
331
14E63
  5
14E63
331
64E7
  5
64E7
331
14F98
  5
14F98
331
14F83
  5
14F83
331
14C8D
  5
14C8D
331
6502
  5
6502
331
64ED
  5
64ED
331
14F9E
  5
14F9E
331
14CA8
  5
14CA8
331
14C93
  5
14C93
331
14DC0
  5
14DC0
331
14FD5
  5
14FD5
331
14FB9
  5
14FB9
331
14FA4
  5
14FA4
331
14CAE
  5
14CAE
331
14DC6
  5
14DC6
331
14FF0
  5
14FF0
331
14FDB
  5
14FDB
331
14FBF
  5
14FBF
331
14CB4
  5
14CB4
331
14DCC
  5
14DCC
331
14DE1
  5
14DE1
331
14FF6
  5
14FF6
331
14E0A
  5
14E0A
331
14FC5
  5
14FC5
331
14DE7
  5
14DE7
331
15011
  5
15011
331
14FFC
  5
14FFC
331
14C03
  5
14C03
331
14E10
  5
14E10
331
14E02
  5
14E02
331
14DED
  5
14DED
331
15017
  5
15017
331
14C09
  5
14C09
331
14E2B
  5
14E2B
331
14E16
  5
14E16
331
1501D
  5
1501D
331
14C24
  5
14C24
331
14C0F
  5
14C0F
331
14E31
  5
14E31
331
14C5B
  5
14C5B
331
14C2A
  5
14C2A
331
14E4C
  5
14E4C
331
14E37
  5
14E37
331
14F6C
  5
14F6C
331
14C61
  5
14C61
331
14C45
  5
14C45
331
14E52
  5
14E52
331
14F72
  5
14F72
331
14C7C
  5
14C7C
331
14C67
  5
14C67
331
14CC4
  5
14CC4
331
14E6D
  5
14E6D
331
64F1
  5
64F1
331
14F8D
  5
14F8D
331
14C82
  5
14C82
331
14CCA
  5
14CCA
331
14E73
  5
14E73
331
14FA8
  5
14FA8
331
14F93
  5
14F93
331
14C9D
  5
14C9D
331
14DB5
  5
14DB5
331
64FD
  5
64FD
331
14FAE
  5
14FAE
331
14CB8
  5
14CB8
331
14CA3
  5
14CA3
331
14DBB
  5
14DBB
331
14DD0
  5
14DD0
331
14FE5
  5
14FE5
331
14FC9
  5
14FC9
331
14FB4
  5
14FB4
331
14CBE
  5
14CBE
331
14DD6
  5
14DD6
331
15000
  5
15000
331
14FEB
  5
14FEB
331
14FCF
  5
14FCF
331
14DF1
  5
14DF1
331
14DDC
  5
14DDC
331
15006
  5
15006
331
14E1A
  5
14E1A
331
14DF7
  5
14DF7
331
1500C
  5
1500C
331
15021
  5
15021
331
14C13
  5
14C13
331
14BFE
  5
14BFE
331
14E20
  5
14E20
331
14C4A
  5
14C4A
331
14DFD
  5
14DFD
331
15027
  5
15027
331
14C19
  5
14C19
331
14E3B
  5
14E3B
331
14E26
  5
14E26
331
14C50
  5
14C50
331
1502D
  5
1502D
331
14C34
  5
14C34
331
14C1F
  5
14C1F
331
14E41
  5
14E41
331
14F61
  5
14F61
331
14C6B
  5
14C6B
331
14C56
  5
14C56
331
14C3A
  5
14C3A
331
14E47
  5
14E47
331
14E5C
  5
14E5C
331
64E0
  5
64E0
331
14F7C
  5
14F7C
331
14F67
  5
14F67
331
14C71
  5
14C71
331
14E62
  5
14E62
331
64E6
  5
64E6
331
14F82
  5
14F82
331
14C8C
  5
14C8C
331
14C77
  5
14C77
331
6501
  5
6501
331
64EC
  5
64EC
331
14F9D
  5
14F9D
331
14C92
  5
14C92
331
14FD4
  5
14FD4
331
6507
  5
6507
331
14FB8
  5
14FB8
331
14FA3
  5
14FA3
331
14CAD
  5
14CAD
331
14DC5
  5
14DC5
331
14FDA
  5
14FDA
331
14FBE
  5
14FBE
331
14CB3
  5
14CB3
331
14DE0
  5
14DE0
331
14DCB
  5
14DCB
331
14FF5
  5
14FF5
331
14E09
  5
14E09
331
14FC4
  5
14FC4
331
14DE6
  5
14DE6
331
14FFB
  5
14FFB
331
15010
  5
15010
331
14C02
  5
14C02
331
14E0F
  5
14E0F
331
14E01
  5
14E01
331
14DEC
  5
14DEC
331
15016
  5
15016
331
14C08
  5
14C08
331
14E2A
  5
14E2A
331
14E15
  5
14E15
331
14E07
  5
14E07
331
1501C
  5
1501C
331
15031
  5
15031
331
14C23
  5
14C23
331
14C0E
  5
14C0E
331
14E30
  5
14E30
331
14C5A
  5
14C5A
331
14C29
  5
14C29
331
14E36
  5
14E36
331
14E4B
  5
14E4B
331
14F6B
  5
14F6B
331
14C60
  5
14C60
331
14C44
  5
14C44
331
14C2F
  5
14C2F
331
14E51
  5
14E51
331
14F71
  5
14F71
331
14C7B
  5
14C7B
331
14C66
  5
14C66
331
14CC3
  5
14CC3
331
14E57
  5
14E57
331
14E6C
  5
14E6C
331
64F0
  5
64F0
331
14F8C
  5
14F8C
331
14F77
  5
14F77
331
14C81
  5
14C81
331
14CC9
  5
14CC9
331
14E72
  5
14E72
331
64F6
  5
64F6
331
14F92
  5
14F92
331
14C9C
  5
14C9C
331
14C87
  5
14C87
331
14DB4
  5
14DB4
331
14CCF
  5
14CCF
331
64FC
  5
64FC
331
14FAD
  5
14FAD
331
14CA2
  5
14CA2
331
14DBA
  5
14DBA
331
14FE4
  5
14FE4
331
14FC8
  5
14FC8
331
14FB3
  5
14FB3
331
14CBD
  5
14CBD
331
14DD5
  5
14DD5
331
14FEA
  5
14FEA
331
14FCE
  5
14FCE
331
14DF0
  5
14DF0
331
14DDB
  5
14DDB
331
15005
  5
15005
331
14E19
  5
14E19
331
14DF6
  5
14DF6
331
1500B
  5
1500B
331
15020
  5
15020
331
14C12
  5
14C12
331
14BFD
  5
14BFD
331
14E1F
  5
14E1F
331
14C49
  5
14C49
331
14DFC
  5
14DFC
331
15026
  5
15026
331
14C18
  5
14C18
331
14E25
  5
14E25
331
14E3A
  5
14E3A
331
14C4F
  5
14C4F
331
1502C
  5
1502C
331
14C33
  5
14C33
331
14C1E
  5
14C1E
331
14E40
  5
14E40
331
14F60
  5
14F60
331
14C6A
  5
14C6A
331
14C55
  5
14C55
331
14C39
  5
14C39
331
14E46
  5
14E46
331
14E5B
  5
14E5B
331
14F7B
  5
14F7B
331
14F66
  5
14F66
331
14C70
  5
14C70
331
14C3F
  5
14C3F
331
14E61
  5
14E61
331
64E5
  5
64E5
331
14F81
  5
14F81
331
14C8B
  5
14C8B
331
14C76
  5
14C76
331
14E67
  5
14E67
331
6500
  5
6500
331
64EB
  5
64EB
331
14F9C
  5
14F9C
331
14F87
  5
14F87
331
14C91
  5
14C91
331
14FD3
  5
14FD3
331
6506
  5
6506
331
14FA2
  5
14FA2
331
14CAC
  5
14CAC
331
14C97
  5
14C97
331
14DC4
  5
14DC4
331
14DAF
  5
14DAF
331
14FD9
  5
14FD9
331
14FBD
  5
14FBD
331
14CB2
  5
14CB2
331
14DCA
  5
14DCA
331
14FF4
  5
14FF4
331
14FDF
  5
14FDF
331
14E08
  5
14E08
331
14FC3
  5
14FC3
331
14DE5
  5
14DE5
331
14FFA
  5
14FFA
331
14C01
  5
14C01
331
14E0E
  5
14E0E
331
14E00
  5
14E00
331
14DEB
  5
14DEB
331
15015
  5
15015
331
14C07
  5
14C07
331
14E14
  5
14E14
331
14E29
  5
14E29
331
14E06
  5
14E06
331
1501B
  5
1501B
331
15030
  5
15030
331
14C22
  5
14C22
331
14C0D
  5
14C0D
331
14E2F
  5
14E2F
331
14C59
  5
14C59
331
14C28
  5
14C28
331
14E35
  5
14E35
331
14E4A
  5
14E4A
331
14F6A
  5
14F6A
331
14C5F
  5
14C5F
331
14C43
  5
14C43
331
14C2E
  5
14C2E
331
14E50
  5
14E50
331
14F70
  5
14F70
331
14C7A
  5
14C7A
331
14C65
  5
14C65
331
14CC2
  5
14CC2
331
14E56
  5
14E56
331
14E6B
  5
14E6B
331
64DA
  5
64DA
331
14F8B
  5
14F8B
331
14F76
  5
14F76
331
14C80
  5
14C80
331
14CC8
  5
14CC8
331
14E71
  5
14E71
331
64F5
  5
64F5
331
14F91
  5
14F91
331
14C9B
  5
14C9B
331
14C86
  5
14C86
331
14DB3
  5
14DB3
331
14CCE
  5
14CCE
331
14E77
  5
14E77
331
64FB
  5
64FB
331
14FAC
  5
14FAC
331
14F97
  5
14F97
331
14CA1
  5
14CA1
331
14DB9
  5
14DB9
331
14FE3
  5
14FE3
331
14FB2
  5
14FB2
331
14CBC
  5
14CBC
331
14CA7
  5
14CA7
331
14DD4
  5
14DD4
331
14DBF
  5
14DBF
331
14FE9
  5
14FE9
331
14FCD
  5
14FCD
331
14DDA
  5
14DDA
331
15004
  5
15004
331
14FEF
  5
14FEF
331
14E18
  5
14E18
331
14DF5
  5
14DF5
331
1500A
  5
1500A
331
14C11
  5
14C11
331
14E1E
  5
14E1E
331
14C48
  5
14C48
331
14DFB
  5
14DFB
331
15025
  5
15025
331
14C17
  5
14C17
331
14E24
  5
14E24
331
14E39
  5
14E39
331
14C4E
  5
14C4E
331
1502B
  5
1502B
331
14C32
  5
14C32
331
14C1D
  5
14C1D
331
14E3F
  5
14E3F
331
14F5F
  5
14F5F
331
14C69
  5
14C69
331
14C54
  5
14C54
331
14C38
  5
14C38
331
14E45
  5
14E45
331
14E5A
  5
14E5A
331
14F7A
  5
14F7A
331
14F65
  5
14F65
331
14C6F
  5
14C6F
331
14C3E
  5
14C3E
331
14E60
  5
14E60
331
64E4
  5
64E4
331
14F80
  5
14F80
331
14C8A
  5
14C8A
331
14C75
  5
14C75
331
14E66
  5
14E66
331
14E7B
  5
14E7B
331
64EA
  5
64EA
331
14F9B
  5
14F9B
331
14F86
  5
14F86
331
14C90
  5
14C90
331
14FD2
  5
14FD2
331
6505
  5
6505
331
14FA1
  5
14FA1
331
14CAB
  5
14CAB
331
14C96
  5
14C96
331
14DC3
  5
14DC3
331
14DAE
  5
14DAE
331
14FD8
  5
14FD8
331
14FBC
  5
14FBC
331
14FA7
  5
14FA7
331
14CB1
  5
14CB1
331
14DC9
  5
14DC9
331
14FF3
  5
14FF3
331
14FDE
  5
14FDE
331
14FC2
  5
14FC2
331
14CB7
  5
14CB7
331
14DCF
  5
14DCF
331
14DE4
  5
14DE4
331
14FF9
  5
14FF9
331
14C00
  5
14C00
331
14E0D
  5
14E0D
331
14DEA
  5
14DEA
331
15014
  5
15014
331
14FFF
  5
14FFF
331
14C06
  5
14C06
331
14E13
  5
14E13
331
14E28
  5
14E28
331
14E05
  5
14E05
331
1501A
  5
1501A
331
14C21
  5
14C21
331
14C0C
  5
14C0C
331
14E2E
  5
14E2E
331
14C58
  5
14C58
331
14C27
  5
14C27
331
14E34
  5
14E34
331
14E49
  5
14E49
331
14F69
  5
14F69
331
14C5E
  5
14C5E
331
14C42
  5
14C42
331
14C2D
  5
14C2D
331
14E4F
  5
14E4F
331
14F6F
  5
14F6F
331
14C79
  5
14C79
331
14C64
  5
14C64
331
14CC1
  5
14CC1
331
14E55
  5
14E55
331
14E6A
  5
14E6A
331
14F8A
  5
14F8A
331
14F75
  5
14F75
331
14C7F
  5
14C7F
331
14CC7
  5
14CC7
331
14E70
  5
14E70
331
64DF
  5
64DF
331
14F90
  5
14F90
331
14C9A
  5
14C9A
331
14C85
  5
14C85
331
14DB2
  5
14DB2
331
14CCD
  5
14CCD
331
14E76
  5
14E76
331
64FA
  5
64FA
331
14FAB
  5
14FAB
331
14F96
  5
14F96
331
14CA0
  5
14CA0
331
14DB8
  5
14DB8
331
14FE2
  5
14FE2
331
14FB1
  5
14FB1
331
14CBB
  5
14CBB
331
14CA6
  5
14CA6
331
14DBE
  5
14DBE
331
14DD3
  5
14DD3
331
14FE8
  5
14FE8
331
14FCC
  5
14FCC
331
14FB7
  5
14FB7
331
14DD9
  5
14DD9
331
15003
  5
15003
331
14FEE
  5
14FEE
331
14DDF
  5
14DDF
331
14DF4
  5
14DF4
331
15009
  5
15009
331
14C10
  5
14C10
331
14E1D
  5
14E1D
331
14DFA
  5
14DFA
331
15024
  5
15024
331
1500F
  5
1500F
331
14C16
  5
14C16
331
14E23
  5
14E23
331
14E38
  5
14E38
331
14C4D
  5
14C4D
331
1502A
  5
1502A
331
14C31
  5
14C31
331
14C1C
  5
14C1C
331
14E3E
  5
14E3E
331
14F5E
  5
14F5E
331
14C68
  5
14C68
331
14C53
  5
14C53
331
14C37
  5
14C37
331
14E44
  5
14E44
331
14E59
  5
14E59
331
14F79
  5
14F79
331
14F64
  5
14F64
331
14C6E
  5
14C6E
331
14C3D
  5
14C3D
331
14E5F
  5
14E5F
331
64E3
  5
64E3
331
14F7F
  5
14F7F
331
14C89
  5
14C89
331
14C74
  5
14C74
331
14CD1
  5
14CD1
331
14E7A
  5
14E7A
331
14E65
  5
14E65
331
64E9
  5
64E9
331
14F9A
  5
14F9A
331
14F85
  5
14F85
331
14C8F
  5
14C8F
331
14FD1
  5
14FD1
331
6504
  5
6504
331
64EF
  5
64EF
331
14FA0
  5
14FA0
331
14CAA
  5
14CAA
331
14C95
  5
14C95
331
14DAD
  5
14DAD
331
14DC2
  5
14DC2
331
14FD7
  5
14FD7
331
14FBB
  5
14FBB
331
14FA6
  5
14FA6
331
14CB0
  5
14CB0
331
14DC8
  5
14DC8
331
14FF2
  5
14FF2
331
14FDD
  5
14FDD
331
14FC1
  5
14FC1
331
14CB6
  5
14CB6
331
14DCE
  5
14DCE
331
14DE3
  5
14DE3
331
14FF8
  5
14FF8
331
14E0C
  5
14E0C
331
14FC7
  5
14FC7
331
14DE9
  5
14DE9
331
15013
  5
15013
331
14FFE
  5
14FFE
331
14C05
  5
14C05
331
14E12
  5
14E12
331
14DEF
  5
14DEF
331
14E04
  5
14E04
331
15019
  5
15019
331
14C20
  5
14C20
331
14C0B
  5
14C0B
331
14E2D
  5
14E2D
331
1501F
  5
1501F
331
14C26
  5
14C26
331
14E33
  5
14E33
331
14E48
  5
14E48
331
14F68
  5
14F68
331
14C5D
  5
14C5D
331
14C41
  5
14C41
331
14C2C
  5
14C2C
331
14E4E
  5
14E4E
331
14F6E
  5
14F6E
331
14C78
  5
14C78
331
14C63
  5
14C63
331
14CC0
  5
14CC0
331
14C47
  5
14C47
331
14E69
  5
14E69
331
14E54
  5
14E54
331
14F89
  5
14F89
331
14F74
  5
14F74
331
14C7E
  5
14C7E
331
14CC6
  5
14CC6
331
14E6F
  5
14E6F
331
64DE
  5
64DE
331
14F8F
  5
14F8F
331
14C99
  5
14C99
331
14C84
  5
14C84
331
14CCC
  5
14CCC
331
14DB1
  5
14DB1
331
14E75
  5
14E75
331
64F9
  5
64F9
331
14FAA
  5
14FAA
331
14F95
  5
14F95
331
14C9F
  5
14C9F
331
14DB7
  5
14DB7
331
14FE1
  5
14FE1
331
64FF
  5
64FF
331
14FB0
  5
14FB0
331
14CBA
  5
14CBA
331
14CA5
  5
14CA5
331
14DBD
  5
14DBD
331
14DD2
  5
14DD2
331
14FE7
  5
14FE7
331
14FCB
  5
14FCB
331
14FB6
  5
14FB6
331
14DD8
  5
14DD8
331
15002
  5
15002
331
14FED
  5
14FED
331
14DDE
  5
14DDE
331
14DF3
  5
14DF3
331
15008
  5
15008
331
14E1C
  5
14E1C
331
14DF9
  5
14DF9
331
15023
  5
15023
331
1500E
  5
1500E
331
14C15
  5
14C15
331
14E22
  5
14E22
331
14DFF
  5
14DFF
331
14C4C
  5
14C4C
331
15029
  5
15029
331
14C30
  5
14C30
331
14C1B
  5
14C1B
331
14E3D
  5
14E3D
331
14F5D
  5
14F5D
331
14C52
  5
14C52
331
1502F
  5
1502F
331
14C36
  5
14C36
331
14E58
  5
14E58
331
14E43
  5
14E43
331
14F78
  5
14F78
331
14F63
  5
14F63
331
14C6D
  5
14C6D
331
14C3C
  5
14C3C
331
14E5E
  5
14E5E
331
64E2
  5
64E2
331
14F7E
  5
14F7E
331
14C88
  5
14C88
331
14C73
  5
14C73
331
14CD0
  5
14CD0
331
14E79
  5
14E79
331
14E64
  5
14E64
331
64E8
  5
64E8
331
14F99
  5
14F99
331
14F84
  5
14F84
331
14C8E
  5
14C8E
331
14FD0
  5
14FD0
331
6503
  5
6503
331
64EE
  5
64EE
331
14F9F
  5
14F9F
331
14CA9
  5
14CA9
331
14C94
  5
14C94
331
14DC1
  5
14DC1
331
14FD6
  5
14FD6
331
14FBA
  5
14FBA
331
14FA5
  5
14FA5
331
14CAF
  5
14CAF
331
14DC7
  5
14DC7
331
14FF1
  5
14FF1
331
14FDC
  5
14FDC
331
14FC0
  5
14FC0
331
14CB5
  5
14CB5
331
14DCD
  5
14DCD
331
14DE2
  5
14DE2
331
14FF7
  5
14FF7
331
14E0B
  5
14E0B
331
14FC6
  5
14FC6
331
14DE8
  5
14DE8
331
15012
  5
15012
331
14FFD
  5
14FFD
331
14C04
  5
14C04
331
14E11
  5
14E11
331
14DEE
  5
14DEE
331
14E03
  5
14E03
331
15018
  5
15018
331
14C0A
  5
14C0A
331
14E2C
  5
14E2C
331
14E17
  5
14E17
331
1501E
  5
1501E
331
14C25
  5
14C25
331
14E32
  5
14E32
331
14C5C
  5
14C5C
331
14C40
  5
14C40
331
14C2B
  5
14C2B
331
14E4D
  5
14E4D
331
14F6D
  5
14F6D
331
14C62
  5
14C62
331
14C46
  5
14C46
331
14E68
  5
14E68
331
14E53
  5
14E53
331
14F88
  5
14F88
331
14F73
  5
14F73
331
14C7D
  5
14C7D
331
14CC5
  5
14CC5
331
14E6E
  5
14E6E
331
64F2
  5
64F2
331
14F8E
  5
14F8E
331
14C98
  5
14C98
331
14C83
  5
14C83
331
14CCB
  5
14CCB
331
14DB0
  5
14DB0
331
14E74
  5
14E74
331
64F8
  5
64F8
331
14FA9
  5
14FA9
331
14F94
  5
14F94
331
14C9E
  5
14C9E
331
14DB6
  5
14DB6
331
14FE0
  5
14FE0
331
64FE
  5
64FE
331
14FAF
  5
14FAF
331
14CB9
  5
14CB9
331
14CA4
  5
14CA4
331
14DBC
  5
14DBC
331
14DD1
  5
14DD1
331
14FE6
  5
14FE6
  0
XRECORD
  5
275DC
102
{ACAD_REACTORS
330
275DB
102
}
330
275DB
100
AcDbXrecord
280
     1
102
SHADEPLOT
 70
     0
  0
XRECORD
  5
275E1
102
{ACAD_REACTORS
330
275E0
102
}
330
275E0
100
AcDbXrecord
280
     1
102
SHADEPLOT
 70
     0
  0
LAYOUT
  5
94
102
{ACAD_XDICTIONARY
360
275DE
102
}
102
{ACAD_REACTORS
330
91
102
}
330
91
100
AcDbPlotSettings
  1

  2
HP Color Inkjet CP1700 DIN-A4.pc3
  4
A4
  6

 40
4.222749710083006
 41
13.49372959136963
 42
4.180419921875
 43
3.84173583984375
 44
209.9733276367186
 45
296.9683227539062
 46
0.0
 47
0.0
 48
0.0
 49
0.0
140
0.0
141
0.0
142
1.0
143
1.0
 70
   688
 72
     1
 73
     1
 74
     5
  7

 75
    16
147
1.0
148
0.0
149
0.0
100
AcDbLayout
  1
Layout1
 70
     1
 71
     1
 10
-3.84173583984375
 20
-4.222749710083006
 11
293.1265869140625
 21
205.7505779266358
 12
0.0
 22
0.0
 32
0.0
 14
27.9632857322693
 24
20.15701580047608
 34
0.0
 15
251.6695715904236
 25
181.4131422042846
 35
0.0
146
0.0
 13
0.0
 23
0.0
 33
0.0
 16
1.0
 26
0.0
 36
0.0
 17
0.0
 27
1.0
 37
0.0
 76
     0
330
17
331
22
  0
LAYOUT
  5
93
102
{ACAD_XDICTIONARY
360
14569
102
}
102
{ACAD_REACTORS
330
91
102
}
330
91
100
AcDbPlotSettings
  1

  2
none_device
  4
ISO_A4_(210.00_x_297.00_MM)
  6

 40
7.5
 41
20.0
 42
7.5
 43
20.0
 44
210.0
 45
297.0
 46
0.0
 47
0.0
 48
0.0
 49
0.0
140
0.0
141
0.0
142
1.0
143
13.58902757571341
 70
 11952
 72
     1
 73
     1
 74
     0
  7

 75
     0
147
0.0735887828932822
148
-6349.871125157269
149
-3845.001585699742
100
AcDbLayout
  1
Model
 70
     1
 71
     0
 10
0.0
 20
0.0
 11
12.0
 21
9.0
 12
0.0
 22
0.0
 32
0.0
 14
0.0
 24
0.0
 34
0.0
 15
0.0
 25
0.0
 35
0.0
146
0.0
 13
0.0
 23
0.0
 33
0.0
 16
1.0
 26
0.0
 36
0.0
 17
0.0
 27
1.0
 37
0.0
 76
     0
330
1A
331
195
1001
ACAD_PSEXT
1000
Ninguna
1000
Ninguna
1000
No aplicable
1000
La presentación no se trazará a menos que se seleccione un nuevo nombre de configuración de trazador.
1070
     0
  0
MATERIAL
  5
1A0
102
{ACAD_XDICTIONARY
360
1A1
102
}
102
{ACAD_REACTORS
330
197
102
}
330
197
100
AcDbMaterial
  1
ByBlock
 72
     0
 43
0.0208333333333333
 43
0.0
 43
0.0
 43
0.0
 43
0.0
 43
0.0208333333333333
 43
0.0
 43
0.0
 43
0.0
 43
0.0
 43
1.0
 43
0.0
 43
0.0
 43
0.0
 43
0.0
 43
1.0
 77
     0
 47
0.0208333333333333
 47
0.0
 47
0.0
 47
0.0
 47
0.0
 47
0.0208333333333333
 47
0.0
 47
0.0
 47
0.0
 47
0.0
 47
1.0
 47
0.0
 47
0.0
 47
0.0
 47
0.0
 47
1.0
171
     0
 49
0.0208333333333333
 49
0.0
 49
0.0
 49
0.0
 49
0.0
 49
0.0208333333333333
 49
0.0
 49
0.0
 49
0.0
 49
0.0
 49
1.0
 49
0.0
 49
0.0
 49
0.0
 49
0.0
 49
1.0
175
     0
142
0.0208333333333333
142
0.0
142
0.0
142
0.0
142
0.0
142
0.0208333333333333
142
0.0
142
0.0
142
0.0
142
0.0
142
1.0
142
0.0
142
0.0
142
0.0
142
0.0
142
1.0
179
     0
144
0.0208333333333333
144
0.0
144
0.0
144
0.0
144
0.0
144
0.0208333333333333
144
0.0
144
0.0
144
0.0
144
0.0
144
1.0
144
0.0
144
0.0
144
0.0
144
0.0
144
1.0
147
0.0208333333333333
147
0.0
147
0.0
147
0.0
147
0.0
147
0.0208333333333333
147
0.0
147
0.0
147
0.0
147
0.0
147
1.0
147
0.0
147
0.0
147
0.0
147
0.0
147
1.0
  0
MATERIAL
  5
198
102
{ACAD_XDICTIONARY
360
199
102
}
102
{ACAD_REACTORS
330
197
102
}
330
197
100
AcDbMaterial
  1
ByLayer
 72
     0
 43
0.0208333333333333
 43
0.0
 43
0.0
 43
0.0
 43
0.0
 43
0.0208333333333333
 43
0.0
 43
0.0
 43
0.0
 43
0.0
 43
1.0
 43
0.0
 43
0.0
 43
0.0
 43
0.0
 43
1.0
 77
     0
 47
0.0208333333333333
 47
0.0
 47
0.0
 47
0.0
 47
0.0
 47
0.0208333333333333
 47
0.0
 47
0.0
 47
0.0
 47
0.0
 47
1.0
 47
0.0
 47
0.0
 47
0.0
 47
0.0
 47
1.0
171
     0
 49
0.0208333333333333
 49
0.0
 49
0.0
 49
0.0
 49
0.0
 49
0.0208333333333333
 49
0.0
 49
0.0
 49
0.0
 49
0.0
 49
1.0
 49
0.0
 49
0.0
 49
0.0
 49
0.0
 49
1.0
175
     0
142
0.0208333333333333
142
0.0
142
0.0
142
0.0
142
0.0
142
0.0208333333333333
142
0.0
142
0.0
142
0.0
142
0.0
142
1.0
142
0.0
142
0.0
142
0.0
142
0.0
142
1.0
179
     0
144
0.0208333333333333
144
0.0
144
0.0
144
0.0
144
0.0
144
0.0208333333333333
144
0.0
144
0.0
144
0.0
144
0.0
144
1.0
144
0.0
144
0.0
144
0.0
144
0.0
144
1.0
147
0.0208333333333333
147
0.0
147
0.0
147
0.0
147
0.0
147
0.0208333333333333
147
0.0
147
0.0
147
0.0
147
0.0
147
1.0
147
0.0
147
0.0
147
0.0
147
0.0
147
1.0
  0
MATERIAL
  5
1A8
102
{ACAD_XDICTIONARY
360
1A9
102
}
102
{ACAD_REACTORS
330
197
102
}
330
197
100
AcDbMaterial
  1
Global
 72
     0
 43
0.0208333333333333
 43
0.0
 43
0.0
 43
0.0
 43
0.0
 43
0.0208333333333333
 43
0.0
 43
0.0
 43
0.0
 43
0.0
 43
1.0
 43
0.0
 43
0.0
 43
0.0
 43
0.0
 43
1.0
 77
     0
 47
0.0208333333333333
 47
0.0
 47
0.0
 47
0.0
 47
0.0
 47
0.0208333333333333
 47
0.0
 47
0.0
 47
0.0
 47
0.0
 47
1.0
 47
0.0
 47
0.0
 47
0.0
 47
0.0
 47
1.0
171
     0
 49
0.0208333333333333
 49
0.0
 49
0.0
 49
0.0
 49
0.0
 49
0.0208333333333333
 49
0.0
 49
0.0
 49
0.0
 49
0.0
 49
1.0
 49
0.0
 49
0.0
 49
0.0
 49
0.0
 49
1.0
175
     0
142
0.0208333333333333
142
0.0
142
0.0
142
0.0
142
0.0
142
0.0208333333333333
142
0.0
142
0.0
142
0.0
142
0.0
142
1.0
142
0.0
142
0.0
142
0.0
142
0.0
142
1.0
179
     0
144
0.0208333333333333
144
0.0
144
0.0
144
0.0
144
0.0
144
0.0208333333333333
144
0.0
144
0.0
144
0.0
144
0.0
144
1.0
144
0.0
144
0.0
144
0.0
144
0.0
144
1.0
147
0.0208333333333333
147
0.0
147
0.0
147
0.0
147
0.0
147
0.0208333333333333
147
0.0
147
0.0
147
0.0
147
0.0
147
1.0
147
0.0
147
0.0
147
0.0
147
0.0
147
1.0
  0
MLEADERSTYLE
  5
1DA
102
{ACAD_REACTORS
330
1D9
102
}
330
1D9
100
AcDbMLeaderStyle
170
     2
171
     1
172
     0
 90
        2
 40
0.0
 41
0.0
173
     1
 91
-1056964608
340
14
 92
       -2
290
     1
 42
2.0
291
     1
 43
0.36
  3
Standard
 44
4.0
300

342
10
174
     1
178
     6
175
     1
176
     0
 93
-1056964608
 45
4.0
292
     0
297
     0
 46
4.0
 94
-1056964608
 47
1.0
 49
1.0
140
1.0
293
     1
141
0.0
294
     1
177
     0
142
1.0
295
     0
296
     0
143
0.125
1001
ACAD_MLEADERVER
1070
     2
  0
MLINESTYLE
  5
13
102
{ACAD_REACTORS
330
E
102
}
330
E
100
AcDbMlineStyle
  2
STANDARD
 70
     0
  3

 62
     0
 51
90.0
 52
90.0
 71
     2
 49
0.5
 62
   256
  6
BYLAYER
 49
-0.5
 62
   256
  6
BYLAYER
  0
ACDBPLACEHOLDER
  5
90
102
{ACAD_REACTORS
330
8F
102
}
330
8F
  0
SCALE
  5
1C8
102
{ACAD_REACTORS
330
1C7
102
}
330
1C7
100
AcDbScale
 70
     0
300
1:1
140
1.0
141
1.0
290
     1
  0
SCALE
  5
1C9
102
{ACAD_REACTORS
330
1C7
102
}
330
1C7
100
AcDbScale
 70
     0
300
1:2
140
1.0
141
2.0
290
     0
  0
SCALE
  5
1CA
102
{ACAD_REACTORS
330
1C7
102
}
330
1C7
100
AcDbScale
 70
     0
300
1:4
140
1.0
141
4.0
290
     0
  0
SCALE
  5
1CB
102
{ACAD_REACTORS
330
1C7
102
}
330
1C7
100
AcDbScale
 70
     0
300
1:5
140
1.0
141
5.0
290
     0
  0
SCALE
  5
1CC
102
{ACAD_REACTORS
330
1C7
102
}
330
1C7
100
AcDbScale
 70
     0
300
1:8
140
1.0
141
8.0
290
     0
  0
SCALE
  5
1CD
102
{ACAD_REACTORS
330
1C7
102
}
330
1C7
100
AcDbScale
 70
     0
300
1:10
140
1.0
141
10.0
290
     0
  0
SCALE
  5
1CE
102
{ACAD_REACTORS
330
1C7
102
}
330
1C7
100
AcDbScale
 70
     0
300
1:16
140
1.0
141
16.0
290
     0
  0
SCALE
  5
1CF
102
{ACAD_REACTORS
330
1C7
102
}
330
1C7
100
AcDbScale
 70
     0
300
1:20
140
1.0
141
20.0
290
     0
  0
SCALE
  5
1D0
102
{ACAD_REACTORS
330
1C7
102
}
330
1C7
100
AcDbScale
 70
     0
300
1:30
140
1.0
141
30.0
290
     0
  0
SCALE
  5
1D1
102
{ACAD_REACTORS
330
1C7
102
}
330
1C7
100
AcDbScale
 70
     0
300
1:40
140
1.0
141
40.0
290
     0
  0
SCALE
  5
1D2
102
{ACAD_REACTORS
330
1C7
102
}
330
1C7
100
AcDbScale
 70
     0
300
1:50
140
1.0
141
50.0
290
     0
  0
SCALE
  5
1D3
102
{ACAD_REACTORS
330
1C7
102
}
330
1C7
100
AcDbScale
 70
     0
300
1:100
140
1.0
141
100.0
290
     0
  0
SCALE
  5
1D4
102
{ACAD_REACTORS
330
1C7
102
}
330
1C7
100
AcDbScale
 70
     0
300
2:1
140
2.0
141
1.0
290
     0
  0
SCALE
  5
1D5
102
{ACAD_REACTORS
330
1C7
102
}
330
1C7
100
AcDbScale
 70
     0
300
4:1
140
4.0
141
1.0
290
     0
  0
SCALE
  5
1D6
102
{ACAD_REACTORS
330
1C7
102
}
330
1C7
100
AcDbScale
 70
     0
300
8:1
140
8.0
141
1.0
290
     0
  0
SCALE
  5
1D7
102
{ACAD_REACTORS
330
1C7
102
}
330
1C7
100
AcDbScale
 70
     0
300
10:1
140
10.0
141
1.0
290
     0
  0
SCALE
  5
1D8
102
{ACAD_REACTORS
330
1C7
102
}
330
1C7
100
AcDbScale
 70
     0
300
100:1
140
100.0
141
1.0
290
     0
  0
TABLESTYLE
  5
1C6
102
{ACAD_XDICTIONARY
360
141C5
102
}
102
{ACAD_REACTORS
330
1C5
102
}
330
1C5
100
AcDbTableStyle
  3
Standard
 70
     0
 71
     0
 40
1.5
 41
1.5
280
     0
281
     0
  7
STANDARD
140
4.5
170
     2
 62
     0
 63
     7
283
     0
274
    -2
284
     1
 64
     0
275
    -2
285
     1
 65
     0
276
    -2
286
     1
 66
     0
277
    -2
287
     1
 67
     0
278
    -2
288
     1
 68
     0
279
    -2
289
     1
 69
     0
  7
STANDARD
140
6.0
170
     5
 62
     0
 63
     7
283
     0
274
    -2
284
     1
 64
     0
275
    -2
285
     1
 65
     0
276
    -2
286
     1
 66
     0
277
    -2
287
     1
 67
     0
278
    -2
288
     1
 68
     0
279
    -2
289
     1
 69
     0
  7
STANDARD
140
4.5
170
     5
 62
     0
 63
     7
283
     0
274
    -2
284
     1
 64
     0
275
    -2
285
     1
 65
     0
276
    -2
286
     1
 66
     0
277
    -2
287
     1
 67
     0
278
    -2
288
     1
 68
     0
279
    -2
289
     1
 69
     0
  0
VISUALSTYLE
  5
1B6
102
{ACAD_XDICTIONARY
360
275EC
102
}
102
{ACAD_REACTORS
330
1B0
102
}
330
1B0
100
AcDbVisualStyle
  2

 70
     4
 71
     0
 72
     2
 73
     0
 90
        0
 40
-0.6
 41
-30.0
 62
     5
 63
     7
 74
     1
 91
        4
 64
     7
 65
   257
 75
     1
175
     1
 42
1.0
 92
        0
 66
   257
 43
1.0
 76
     1
 77
     6
 78
     2
 67
     7
 79
     5
170
     0
171
     0
290
     0
174
     0
 93
        1
 44
0.0
173
     0
291
     0
 45
0.0
1001
ACAD
1000
AcDbSavedByObjectVersion
1070
     0
  0
VISUALSTYLE
  5
1B8
102
{ACAD_XDICTIONARY
360
275F0
102
}
102
{ACAD_REACTORS
330
1B0
102
}
330
1B0
100
AcDbVisualStyle
  2

 70
     6
 71
     1
 72
     2
 73
     2
 90
        0
 40
-0.6
 41
-30.0
 62
     5
 63
     7
 74
     2
 91
        2
 64
     7
 65
   257
 75
     2
175
     1
 42
179.0
 92
        0
 66
   257
 43
1.0
 76
     1
 77
     6
 78
     2
 67
     7
 79
     3
170
     0
171
     0
290
     0
174
     0
 93
        1
 44
0.0
173
     0
291
     0
 45
0.0
1001
ACAD
1000
AcDbSavedByObjectVersion
1070
     0
  0
VISUALSTYLE
  5
1B7
102
{ACAD_XDICTIONARY
360
275EE
102
}
102
{ACAD_REACTORS
330
1B0
102
}
330
1B0
100
AcDbVisualStyle
  2

 70
     5
 71
     0
 72
     2
 73
     0
 90
        0
 40
-0.6
 41
-30.0
 62
     5
 63
     7
 74
     1
 91
        4
 64
     7
 65
   257
 75
     1
175
     1
 42
1.0
 92
        0
 66
   257
 43
1.0
 76
     1
 77
     6
 78
     2
 67
     7
 79
     5
170
     0
171
     0
290
     0
174
     0
 93
        1
 44
0.0
173
     0
291
     0
 45
0.0
1001
ACAD
1000
AcDbSavedByObjectVersion
1070
     0
  0
VISUALSTYLE
  5
1B5
102
{ACAD_XDICTIONARY
360
275EA
102
}
102
{ACAD_REACTORS
330
1B0
102
}
330
1B0
100
AcDbVisualStyle
  2

 70
     7
 71
     1
 72
     0
 73
     1
 90
        0
 40
-0.6
 41
-30.0
 62
     5
 63
     7
 74
     0
 91
        4
 64
     7
 65
   257
 75
     1
175
     1
 42
1.0
 92
        8
 66
     7
 43
1.0
 76
     1
 77
     6
 78
     2
 67
     7
 79
     5
170
     0
171
     0
290
     0
174
     0
 93
        1
 44
0.0
173
     0
291
     1
 45
0.0
1001
ACAD
1000
AcDbSavedByObjectVersion
1070
     0
  0
VISUALSTYLE
  5
1BC
102
{ACAD_XDICTIONARY
360
275F8
102
}
102
{ACAD_REACTORS
330
1B0
102
}
330
1B0
100
AcDbVisualStyle
  2

 70
    12
 71
     2
 72
     2
 73
     0
 90
        0
 40
-0.6
 41
-30.0
 62
     5
 63
     7
 74
     1
 91
        4
 64
     7
 65
   257
 75
     1
175
     1
 42
1.0
 92
        8
 66
     7
 43
1.0
 76
     1
 77
     6
 78
     2
 67
     7
 79
     5
170
     0
171
     0
290
     0
174
     0
 93
        1
 44
50.0
173
     0
291
     1
 45
0.0
1001
ACAD
1000
AcDbSavedByObjectVersion
1070
     0
  0
VISUALSTYLE
  5
1C0
102
{ACAD_XDICTIONARY
360
27600
102
}
102
{ACAD_REACTORS
330
1B0
102
}
330
1B0
100
AcDbVisualStyle
  2

 70
    16
 71
     2
 72
     2
 73
     3
 90
        0
 40
-0.6
 41
-30.0
 62
     5
 63
     8
 74
     1
 91
        4
 64
     7
 65
   257
 75
     1
175
     1
 42
1.0
 92
        8
 66
     8
 43
1.0
 76
     1
 77
     6
 78
     2
 67
     7
 79
     5
170
     0
171
     0
290
     0
174
     0
 93
        1
 44
0.0
173
     0
291
     1
 45
0.0
1001
ACAD
1000
AcDbSavedByObjectVersion
1070
     0
  0
VISUALSTYLE
  5
1B9
102
{ACAD_XDICTIONARY
360
275F2
102
}
102
{ACAD_REACTORS
330
1B0
102
}
330
1B0
100
AcDbVisualStyle
  2

 70
     9
 71
     3
 72
     2
 73
     0
 90
        0
 40
-0.6
 41
-30.0
 62
     5
 63
     7
 74
     2
 91
        2
 64
     7
 65
   257
 75
     1
175
     1
 42
179.0
 92
        8
 66
     7
 43
1.0
 76
     1
 77
     6
 78
     2
 67
     7
 79
     3
170
     0
171
     0
290
     0
174
     0
 93
        1
 44
0.0
173
     0
291
     0
 45
0.0
1001
ACAD
1000
AcDbSavedByObjectVersion
1070
     0
  0
VISUALSTYLE
  5
1BB
102
{ACAD_XDICTIONARY
360
275F6
102
}
102
{ACAD_REACTORS
330
1B0
102
}
330
1B0
100
AcDbVisualStyle
  2

 70
    11
 71
     2
 72
     2
 73
     0
 90
        0
 40
-0.6
 41
-30.0
 62
     5
 63
     7
 74
     1
 91
        4
 64
     7
 65
   257
 75
     1
175
     1
 42
1.0
 92
        8
 66
     7
 43
1.0
 76
     1
 77
     6
 78
     2
 67
     7
 79
     5
170
     0
171
     0
290
     0
174
     0
 93
        1
 44
-50.0
173
     0
291
     1
 45
0.0
1001
ACAD
1000
AcDbSavedByObjectVersion
1070
     0
  0
VISUALSTYLE
  5
1C3
102
{ACAD_XDICTIONARY
360
27606
102
}
102
{ACAD_REACTORS
330
1B0
102
}
330
1B0
100
AcDbVisualStyle
  2

 70
    22
 71
     2
 72
     2
 73
     0
 90
        0
 40
-0.6
 41
-30.0
 62
     5
 63
     7
 74
     1
 91
        4
 64
     7
 65
   257
 75
     1
175
     1
 42
1.0
 92
        8
 66
     7
 43
1.0
 76
     1
 77
     6
 78
     2
 67
     7
 79
     5
170
     0
171
     0
290
     0
174
     0
 93
        1
 44
0.0
173
     0
291
     1
 45
0.0
1001
ACAD
1000
AcDbSavedByObjectVersion
1070
     0
  0
VISUALSTYLE
  5
1BF
102
{ACAD_XDICTIONARY
360
275FE
102
}
102
{ACAD_REACTORS
330
1B0
102
}
330
1B0
100
AcDbVisualStyle
  2

 70
    15
 71
     2
 72
     2
 73
     0
 90
        0
 40
-0.6
 41
-30.0
 62
     5
 63
     7
 74
     1
 91
        4
 64
     7
 65
   257
 75
     1
175
     1
 42
1.0
 92
        8
 66
     7
 43
1.0
 76
     1
 77
     6
 78
     2
 67
     7
 79
     5
170
     0
171
     0
290
     0
174
     0
 93
        1
 44
0.0
173
     0
291
     1
 45
0.0
1001
ACAD
1000
AcDbSavedByObjectVersion
1070
     0
  0
VISUALSTYLE
  5
1B1
102
{ACAD_XDICTIONARY
360
275E2
102
}
102
{ACAD_REACTORS
330
1B0
102
}
330
1B0
100
AcDbVisualStyle
  2

 70
     0
 71
     2
 72
     1
 73
     1
 90
        2
 40
-0.6
 41
30.0
 62
     5
 63
     7
 74
     0
 91
        4
 64
     7
 65
   257
 75
     1
175
     1
 42
1.0
 92
        8
 66
     7
 43
1.0
 76
     1
 77
     6
 78
     2
 67
     7
 79
     5
170
     0
171
     0
290
     0
174
     0
 93
       13
 44
0.0
173
     0
291
     1
 45
0.0
1001
ACAD
1000
AcDbSavedByObjectVersion
1070
     0
  0
VISUALSTYLE
  5
1B2
102
{ACAD_XDICTIONARY
360
275E4
102
}
102
{ACAD_REACTORS
330
1B0
102
}
330
1B0
100
AcDbVisualStyle
  2

 70
     1
 71
     2
 72
     1
 73
     1
 90
        2
 40
-0.6
 41
30.0
 62
     5
 63
     7
 74
     1
 91
        4
 64
     7
 65
   257
 75
     1
175
     1
 42
1.0
 92
        0
 66
   257
 43
1.0
 76
     1
 77
     6
 78
     2
 67
     7
 79
     5
170
     0
171
     0
290
     0
174
     0
 93
       13
 44
0.0
173
     0
291
     1
 45
0.0
1001
ACAD
1000
AcDbSavedByObjectVersion
1070
     0
  0
VISUALSTYLE
  5
1B3
102
{ACAD_XDICTIONARY
360
275E6
102
}
102
{ACAD_REACTORS
330
1B0
102
}
330
1B0
100
AcDbVisualStyle
  2

 70
     2
 71
     2
 72
     2
 73
     1
 90
        2
 40
-0.6
 41
30.0
 62
     5
 63
     7
 74
     0
 91
        4
 64
     7
 65
   257
 75
     1
175
     1
 42
1.0
 92
        0
 66
     7
 43
1.0
 76
     1
 77
     6
 78
     2
 67
     7
 79
     5
170
     0
171
     0
290
     0
174
     0
 93
       13
 44
0.0
173
     0
291
     1
 45
0.0
1001
ACAD
1000
AcDbSavedByObjectVersion
1070
     0
  0
VISUALSTYLE
  5
1B4
102
{ACAD_XDICTIONARY
360
275E8
102
}
102
{ACAD_REACTORS
330
1B0
102
}
330
1B0
100
AcDbVisualStyle
  2

 70
     3
 71
     2
 72
     2
 73
     1
 90
        2
 40
-0.6
 41
30.0
 62
     5
 63
     7
 74
     1
 91
        4
 64
     7
 65
   257
 75
     1
175
     1
 42
1.0
 92
        0
 66
   257
 43
1.0
 76
     1
 77
     6
 78
     2
 67
     7
 79
     5
170
     0
171
     0
290
     0
174
     0
 93
       13
 44
0.0
173
     0
291
     1
 45
0.0
1001
ACAD
1000
AcDbSavedByObjectVersion
1070
     0
  0
VISUALSTYLE
  5
1C1
102
{ACAD_XDICTIONARY
360
27602
102
}
102
{ACAD_REACTORS
330
1B0
102
}
330
1B0
100
AcDbVisualStyle
  2

 70
    20
 71
     2
 72
     2
 73
     0
 90
        0
 40
-0.6
 41
-30.0
 62
     5
 63
     7
 74
     1
 91
        4
 64
     7
 65
   257
 75
     1
175
     1
 42
1.0
 92
       10
 66
     7
 43
1.0
 76
     1
 77
     6
 78
     2
 67
     7
 79
     5
170
     0
171
     0
290
     0
174
     0
 93
        1
 44
0.0
173
     0
291
     1
 45
0.0
1001
ACAD
1000
AcDbSavedByObjectVersion
1070
     0
  0
VISUALSTYLE
  5
1BE
102
{ACAD_XDICTIONARY
360
275FC
102
}
102
{ACAD_REACTORS
330
1B0
102
}
330
1B0
100
AcDbVisualStyle
  2

 70
    14
 71
     2
 72
     2
 73
     0
 90
        0
 40
-0.6
 41
-30.0
 62
     5
 63
     7
 74
     1
 91
        4
 64
     7
 65
   257
 75
     7
175
     7
 42
1.0
 92
        8
 66
     7
 43
1.0
 76
     1
 77
     6
 78
     2
 67
     7
 79
     5
170
     0
171
     0
290
     0
174
     0
 93
        1
 44
0.0
173
     0
291
     1
 45
0.0
1001
ACAD
1000
AcDbSavedByObjectVersion
1070
     0
  0
VISUALSTYLE
  5
1C2
102
{ACAD_XDICTIONARY
360
27604
102
}
102
{ACAD_REACTORS
330
1B0
102
}
330
1B0
100
AcDbVisualStyle
  2

 70
    21
 71
     2
 72
     2
 73
     0
 90
        0
 40
-0.6
 41
-30.0
 62
     5
 63
     7
 74
     1
 91
        4
 64
     7
 65
   257
 75
     1
175
     1
 42
1.0
 92
        9
 66
     7
 43
1.0
 76
     1
 77
     6
 78
     2
 67
     7
 79
     5
170
     0
171
     0
290
     0
174
     0
 93
        1
 44
0.0
173
     0
291
     1
 45
0.0
1001
ACAD
1000
AcDbSavedByObjectVersion
1070
     0
  0
VISUALSTYLE
  5
1BA
102
{ACAD_XDICTIONARY
360
275F4
102
}
102
{ACAD_REACTORS
330
1B0
102
}
330
1B0
100
AcDbVisualStyle
  2

 70
     8
 71
     2
 72
     2
 73
     0
 90
        0
 40
-0.6
 41
-30.0
 62
     5
 63
     7
 74
     1
 91
        0
 64
     7
 65
   257
 75
     1
175
     1
 42
1.0
 92
        8
 66
     8
 43
1.0
 76
     1
 77
     6
 78
     2
 67
     7
 79
     5
170
     0
171
     0
290
     0
174
     0
 93
       13
 44
0.0
173
     0
291
     0
 45
0.0
1001
ACAD
1000
AcDbSavedByObjectVersion
1070
     0
  0
VISUALSTYLE
  5
1BD
102
{ACAD_XDICTIONARY
360
275FA
102
}
102
{ACAD_REACTORS
330
1B0
102
}
330
1B0
100
AcDbVisualStyle
  2

 70
    13
 71
     2
 72
     2
 73
     0
 90
        0
 40
-0.6
 41
-30.0
 62
     5
 63
     7
 74
     1
 91
        4
 64
     7
 65
   257
 75
     1
175
     1
 42
1.0
 92
       12
 66
     7
 43
1.0
 76
     1
 77
     6
 78
     2
 67
     7
 79
     5
170
     0
171
     0
290
     0
174
     0
 93
        1
 44
0.0
173
     0
291
     1
 45
0.0
1001
ACAD
1000
AcDbSavedByObjectVersion
1070
     0
  0
DICTIONARYVAR
  5
141FD
102
{ACAD_REACTORS
330
5D
102
}
330
5D
100
DictionaryVariables
280
     0
  1
1:1
  0
DICTIONARYVAR
  5
141FC
102
{ACAD_REACTORS
330
5D
102
}
330
5D
100
DictionaryVariables
280
     0
  1
STANDARD
  0
DICTIONARYVAR
  5
141FB
102
{ACAD_REACTORS
330
5D
102
}
330
5D
100
DictionaryVariables
280
     0
  1
STANDARD
  0
DICTIONARYVAR
  5
5E
102
{ACAD_REACTORS
330
5D
102
}
330
5D
100
DictionaryVariables
280
     0
  1
0
  0
DICTIONARYVAR
  5
14416
102
{ACAD_REACTORS
330
5D
102
}
330
5D
100
DictionaryVariables
280
     0
  1
1
  0
DICTIONARYVAR
  5
14415
102
{ACAD_REACTORS
330
5D
102
}
330
5D
100
DictionaryVariables
280
     0
  1
0
  0
DICTIONARYVAR
  5
149FB
102
{ACAD_REACTORS
330
5D
102
}
330
5D
100
DictionaryVariables
280
     0
  1
1
  0
DICTIONARYVAR
  5
149FC
102
{ACAD_REACTORS
330
5D
102
}
330
5D
100
DictionaryVariables
280
     0
  1
15
  0
DICTIONARYVAR
  5
149FA
102
{ACAD_REACTORS
330
5D
102
}
330
5D
100
DictionaryVariables
280
     0
  1
0
  0
DICTIONARYVAR
  5
149F9
102
{ACAD_REACTORS
330
5D
102
}
330
5D
100
DictionaryVariables
280
     0
  1
0
  0
DICTIONARYVAR
  5
14414
102
{ACAD_REACTORS
330
5D
102
}
330
5D
100
DictionaryVariables
280
     0
  1
127
  0
DICTIONARYVAR
  5
275D7
102
{ACAD_REACTORS
330
5D
102
}
330
5D
100
DictionaryVariables
280
     0
  1
2
  0
DICTIONARY
  5
275DE
330
94
100
AcDbDictionary
280
     1
281
     1
  3
ACAD_XREC_ROUNDTRIP
360
275DF
  0
DICTIONARY
  5
14569
330
93
100
AcDbDictionary
280
     1
281
     1
  3
ACAD_XREC_ROUNDTRIP
360
275DD
  3
ADSK_XREC_LAYOUTTHUMBNAIL
360
1456A
  0
DICTIONARY
  5
1A1
330
1A0
100
AcDbDictionary
280
     1
281
     1
  3
ACAD_XREC_ROUNDTRIP
360
275A2
  3
BUMPTILE
360
1A3
  3
DIFFUSETILE
360
1A2
  3
OPACITYTILE
360
1A6
  3
REFLECTIONTILE
360
1A5
  3
REFRACTIONTILE
360
1A7
  3
SPECULARTILE
360
1A4
  0
DICTIONARY
  5
199
330
198
100
AcDbDictionary
280
     1
281
     1
  3
ACAD_XREC_ROUNDTRIP
360
275A1
  3
BUMPTILE
360
19B
  3
DIFFUSETILE
360
19A
  3
OPACITYTILE
360
19E
  3
REFLECTIONTILE
360
19D
  3
REFRACTIONTILE
360
19F
  3
SPECULARTILE
360
19C
  0
DICTIONARY
  5
1A9
330
1A8
100
AcDbDictionary
280
     1
281
     1
  3
ACAD_XREC_ROUNDTRIP
360
275A3
  3
BUMPTILE
360
1AB
  3
DIFFUSETILE
360
1AA
  3
OPACITYTILE
360
1AE
  3
REFLECTIONTILE
360
1AD
  3
REFRACTIONTILE
360
1AF
  3
SPECULARTILE
360
1AC
  0
DICTIONARY
  5
141C5
330
1C6
100
AcDbDictionary
280
     1
281
     1
  3
ACAD_ROUNDTRIP_2008_TABLESTYLE_CELLSTYLEMAP
360
275D8
  3
ACAD_XREC_ROUNDTRIP
360
27608
  0
DICTIONARY
  5
275EC
330
1B6
100
AcDbDictionary
280
     1
281
     1
  3
ACAD_XREC_ROUNDTRIP
360
275ED
  0
DICTIONARY
  5
275F0
330
1B8
100
AcDbDictionary
280
     1
281
     1
  3
ACAD_XREC_ROUNDTRIP
360
275F1
  0
DICTIONARY
  5
275EE
330
1B7
100
AcDbDictionary
280
     1
281
     1
  3
ACAD_XREC_ROUNDTRIP
360
275EF
  0
DICTIONARY
  5
275EA
330
1B5
100
AcDbDictionary
280
     1
281
     1
  3
ACAD_XREC_ROUNDTRIP
360
275EB
  0
DICTIONARY
  5
275F8
330
1BC
100
AcDbDictionary
280
     1
281
     1
  3
ACAD_XREC_ROUNDTRIP
360
275F9
  0
DICTIONARY
  5
27600
330
1C0
100
AcDbDictionary
280
     1
281
     1
  3
ACAD_XREC_ROUNDTRIP
360
27601
  0
DICTIONARY
  5
275F2
330
1B9
100
AcDbDictionary
280
     1
281
     1
  3
ACAD_XREC_ROUNDTRIP
360
275F3
  0
DICTIONARY
  5
275F6
330
1BB
100
AcDbDictionary
280
     1
281
     1
  3
ACAD_XREC_ROUNDTRIP
360
275F7
  0
DICTIONARY
  5
27606
330
1C3
100
AcDbDictionary
280
     1
281
     1
  3
ACAD_XREC_ROUNDTRIP
360
27607
  0
DICTIONARY
  5
275FE
330
1BF
100
AcDbDictionary
280
     1
281
     1
  3
ACAD_XREC_ROUNDTRIP
360
275FF
  0
DICTIONARY
  5
275E2
330
1B1
100
AcDbDictionary
280
     1
281
     1
  3
ACAD_XREC_ROUNDTRIP
360
275E3
  0
DICTIONARY
  5
275E4
330
1B2
100
AcDbDictionary
280
     1
281
     1
  3
ACAD_XREC_ROUNDTRIP
360
275E5
  0
DICTIONARY
  5
275E6
330
1B3
100
AcDbDictionary
280
     1
281
     1
  3
ACAD_XREC_ROUNDTRIP
360
275E7
  0
DICTIONARY
  5
275E8
330
1B4
100
AcDbDictionary
280
     1
281
     1
  3
ACAD_XREC_ROUNDTRIP
360
275E9
  0
DICTIONARY
  5
27602
330
1C1
100
AcDbDictionary
280
     1
281
     1
  3
ACAD_XREC_ROUNDTRIP
360
27603
  0
DICTIONARY
  5
275FC
330
1BE
100
AcDbDictionary
280
     1
281
     1
  3
ACAD_XREC_ROUNDTRIP
360
275FD
  0
DICTIONARY
  5
27604
330
1C2
100
AcDbDictionary
280
     1
281
     1
  3
ACAD_XREC_ROUNDTRIP
360
27605
  0
DICTIONARY
  5
275F4
330
1BA
100
AcDbDictionary
280
     1
281
     1
  3
ACAD_XREC_ROUNDTRIP
360
275F5
  0
DICTIONARY
  5
275FA
330
1BD
100
AcDbDictionary
280
     1
281
     1
  3
ACAD_XREC_ROUNDTRIP
360
275FB
  0
XRECORD
  5
275DF
102
{ACAD_REACTORS
330
275DE
102
}
330
275DE
100
AcDbXrecord
280
     1
102
SHADEPLOT
 70
     0
102
SHADEPLOTRESLEVEL
 70
     2
102
SHADEPLOTCUSTOMDPI
 70
   300
  0
XRECORD
  5
275DD
102
{ACAD_REACTORS
330
14569
102
}
330
14569
100
AcDbXrecord
280
     1
102
SHADEPLOT
 70
     0
102
SHADEPLOTRESLEVEL
 70
     2
102
SHADEPLOTCUSTOMDPI
 70
   300
  0
XRECORD
  5
1456A
102
{ACAD_REACTORS
330
14569
102
}
330
14569
100
AcDbXrecord
280
     1
310
2800000000010000A9000000010008000000000000A9000000000000000000000001000000000000F0FCFE0000000000FFFFFF000000000000000000000000000000000000000000000000000000000000000000330000006600000099000000CC000000FF00000000330000333300006633000099330000CC330000FF3300
310
0000660000336600006666000099660000CC660000FF66000000990000339900006699000099990000CC990000FF99000000CC000033CC000066CC000099CC0000CCCC0000FFCC000000FF000033FF000066FF000099FF0000CCFF0000FFFF000000003300330033006600330099003300CC003300FF003300003333003333
310
33006633330099333300CC333300FF33330000663300336633006666330099663300CC663300FF66330000993300339933006699330099993300CC993300FF99330000CC330033CC330066CC330099CC3300CCCC3300FFCC330000FF330033FF330066FF330099FF3300CCFF3300FFFF330000006600330066006600660099
310
006600CC006600FF00660000336600333366006633660099336600CC336600FF33660000666600336666006666660099666600CC666600FF66660000996600339966006699660099996600CC996600FF99660000CC660033CC660066CC660099CC6600CCCC6600FFCC660000FF660033FF660066FF660099FF6600CCFF6600
310
FFFF660000009900330099006600990099009900CC009900FF00990000339900333399006633990099339900CC339900FF33990000669900336699006666990099669900CC669900FF66990000999900339999006699990099999900CC999900FF99990000CC990033CC990066CC990099CC9900CCCC9900FFCC990000FF99
310
0033FF990066FF990099FF9900CCFF9900FFFF99000000CC003300CC006600CC009900CC00CC00CC00FF00CC000033CC003333CC006633CC009933CC00CC33CC00FF33CC000066CC003366CC006666CC009966CC00CC66CC00FF66CC000099CC003399CC006699CC009999CC00CC99CC00FF99CC0000CCCC0033CCCC0066CC
310
CC0099CCCC00CCCCCC00FFCCCC0000FFCC0033FFCC0066FFCC0099FFCC00CCFFCC00FFFFCC000000FF003300FF006600FF009900FF00CC00FF00FF00FF000033FF003333FF006633FF009933FF00CC33FF00FF33FF000066FF003366FF006666FF009966FF00CC66FF00FF66FF000099FF003399FF006699FF009999FF00CC
310
99FF00FF99FF0000CCFF0033CCFF0066CCFF0099CCFF00CCCCFF00FFCCFF0000FFFF0033FFFF0066FFFF0099FFFF00CCFFFF00FFFFFF00000000000D0D0D001A1A1A00282828003535350043434300505050005D5D5D006B6B6B00787878008686860093939300A1A1A100AEAEAE00BBBBBB00C9C9C900D6D6D600E4E4E400
310
F1F1F100FFFFFF0000000000000000000000000000000000000000000000000000000000000000000000000000000000E1E1E1E1E1E1E1E1E1E1E1E1E1E1E1E1E1E1E1E1E1E1E1E1E1E1E1E1E1E1E1E1E1E1E1E1E1E1E1E1E1E1E1E1E1E1E1E1E1E1E1E1E1E1E2E1E1E1E1E1E1E1E1E1E1E1E1E1E1E1E2E1E1E1E1E1E1E1E1
310
E1E1E1E1E1E1E1E1E1E1E1E1E1E1E1E1E1E1E1E1E1E2E1E1E1E1E1E1E1E1E1E1E1E1E1E1E1E1E1E1E1E1E1E1E1E1E1E1E1E1E1E1E1E1E1E1E1E1E1E1E1E1E1E1E1E2E2E2E2E2E2E2E2E2E2E1E1E1E1E1E1E1E1E1E1E1E1E1E1E1E1E1E1E1E1E1E1E1E1E1E1E1E1E1E1E1E1E1E1E1E1E1E2E1E1E1E1E1E1E1E1E1E1E1E1E1E1
310
E1E1E1E1E1E1E1E1E1E1E1E1E1E1E1E1E1E1E1E1E1E1E1E1E1E1E1E1E1E1E1E1E1E1E1E1E1E1E1E1E1E1E1E1E1E1E1E1E1E1E1E1E1E1E1E1E1E1E1E1E1E1E1E1E1E1E1E1E1E1E1E1E1E1E1E1E1E1E1E1E1E1E1E1E1E1E1E1E1E1E1E1E1E1E1E1E1E1E1E1E1E1E1E1E2E1E1E1E1E1E1E1E1E1E1E1E1E1E1E1E2E1E1E1E1E1E1
310
E1E1E1E1E1E1E1E1E1E1E1E1E1E1E1E1E1E1E1E1E1E1E1E2E1E1E1E1E1E1E1E1E1E1E1E1E1E1E1E1E1E1E1E1E1E1E1E1E1E1E1E1E1E1E1E1E1E1E1E1E1E1E1E1E1E1E1E2E1E1E1E1E1E1E1E1E2E1E1E1E1E1E1E1E1E1E1E1E1E1E1E1E1E1E1E1E1E1E1E1E1E1E1E1E1E1E1E1E1E1E1E1E1E1E2E1E1E1E1E1E1E1E1E1E1E1E1
310
E1E1E1E1E1E1E1E1E1E1E1E1E1E1E1E1E1E1E1E1E1E1E1E1E1E1E1E1E1E1E1E1E1E1E1E1E1E1E1E1E1E1E1E1E1E1E1E1E1E1E1E1F0E2E2E2E2E2E1E1E1E1E1E1E1E1E1E1E1E1E1E1E1E1E1E1E1E1E1E1E1E1E1E1E1E1E1E1E1E1E1E1E1E1E1E1E1E1E1E1E1E1E1E1E1E1E2E1E1E1E1E1E1E1E1E1E1E1E1E1E1E1E2E1E1E1E1
310
E1E1E1E1E1E1E1E1E1E1E1E1E1E1E1E1E1E1E1E1E1E1E1E1E1E2E1E1E1E1E1E1E1E1E1E1E1E1E1E1E1E1E1E1E1E1E1E1E1E1E1E1E1E1E1E1E1E1E1E1E1E1E1E1E1E1E1E1E1E2E1E1E1E1E1E1E1E1E2E1E1E1E1E1E1E1E1E1E1E1E1E1E1E1E1E1E1E1E1E1E1E1E1E1E1E1E1E1E1E1E1E1E1E1E1E1E2E1E1E1E1E1E1E1E1E1E1
310
E1E1E1E1E1E1E1E1E1E1E1E1E1E1E1E1E1E1E1E1E1E1E1E1E1E1E1E1E1E1E1E1E1E1E1E1E1E1E1E1E1E1E1E1E1E1E1E1E1E1E1E1E1E1E1E1E1E1E1E2E1E1E1E1E1E1E1E1E1E1E1E1E1E1E1E1E1E1E1E1E1E1E1E1E1E1E1E1E1E1E1E1E1E1E1E1E1E1E1E1E1E1E1E1E1E1E1E1E2E1E1E1E1E1E1E1E1E1E1E1E1E1E1E1E2E1E1
310
E1E1E1E1E1E1E1E1E1E1E1E1E1E1E1E1E1E1E1E1E1E1E1E1E1E1E1E2E1E1E1E1E1E1E1E1E1E1E1E1E1E1E1E1E1E1E1E1E1E1E1E1E1E1E1E1E1E1E1E1E1E1E1E1E1E1E1E1E1E1E2E2E1E1E1E1E1E1E1E1E2E2E1E1E1E1E1E1E1E1E1E1E1E1E1E1E1E1E1E1E1E1E1E1E1E1E1E1E1E1E1E1E1E1E1E1E1E1E2E1E1E1E1E1E1E1E1
310
E1E1E1E1E1E1E1E1E1E1E1E1E1E1E1E1E1E1E1E1E1E1E1E1E1E1E1E1E1E1E1E1E1E1E1E1E1E1E1E1E1E1E1E1E1E1E1E1E1E1E1E1E1E1E1E1E2E2E1E2E2E2E1E1E1E1E1E1E1E1E1E1E1E1E1E1E1E1E1E1E1E1E1E1E1E1E1E1E1E1E1E1E1E1E1E1E1E1E1E1E1E1E1E1E1E1E1E1E1E1E2E1E1E1E1E1E1E1E1E1E1E1E1E1E1E1E2
310
E1E1E1E1E1E1E1E1E1E1E1E1E1E1E1E1E1E1E1E1E1E1E1E1E1E1E1E1E1E2E1E1E1E1E1E1E1E1E1E1E1E1E1E1E1E1E1E1E1E1E1E1E1E1E1E1E1E1E1E1E1E1E1E1E1E1E1E1E1E1E1E1E2E2E1E1E1E1E1E1E1E1E2E2E1E1E1E1E1E1E1E1E1E1E1E1E1E1E1E1E1E1E1E1E1E1E1E1E1E1E1E1E1E1E1E1E1E1E1E1E2E1E1E1E1E1E1
310
E1E1E1E1E1E1E1E1E1E1E1E1E1E1E1E1E1E1E1E1E1E1E1E1E1E1E1E1E1E1E1E1E1E1E1E1E1E1E1E1E1E1E1E1E1E1E1E1E1E1E1E1E1E1E1E1E1E1E2E2E2E2E2E2E1E1E1E1E1E1E1E1E1E1E1E1E1E1E1E1E1E1E1E1E1E1E1E1E1E1E1E1E1E1E1E1E1E1E1E1E1E1E1E1E1E1E1E1E1E1E1E1E2E1E1E1E1E1E1E1E1E1E1E1E1E1E1
310
E1E2E1E1E1E1E1E1E1E1E1E1E1E1E1E1E1E1E1E1E1E1E1E1E1E1E1E1E1E1E1E2E1E1E1E1E1E1E1E1E1E1E1E1E1E1E1E1E1E1E1E1E1E1E1E1E1E1E1E1E1E1E1E1E1E1E1E1E1E1E1E1E1E1E1E2E1E1E1E1E1E1E1E1E2E1E1E1E1E1E1E1E1E1E1E1E1E1E1E1E1E1E1E1E1E1E1E1E1E1E1E1E1E1E1E1E1E1E1E1E1E1E2E1E1E1E1
310
E1E1E1E1E1E1E1E1E1E1E1E1E1E1E1E1E1E1E1E1E1E1E1E1E1E1E1E1E1E1E1E1E1E1E1E1E1E1E1E1E1E1E1E1E1E1E1E1E1E1E1E1E1E1E1E1E1E1E1E1E1E1E1E1E1E2E1E1E1E1E1E1E1E1E1E1E1E1E1E1E1E1E1E1E1E1E1E1E1E1E1E1E1E1E1E1E1E1E1E1E1E1E1E1E1E1E1E1E1E1E1E1E1E1E2E1E1E1E1E1E1E1E1E1E1E1E1
310
E1E1E1E2E1E1E1E1E1E1E1E1E1E1E1E1E1E1E1E1E1E1E1E1E1E1E1E1E1E1E1E1E1E2E1E1E1E1E1E1E1E1E1E1E1E1E1E1E1E1E1E1E1E1E1E1E1E1E1E1E1E1E1E1E1E1E1E1E1E1E1E1E1E1E1E1E1E2E2E2E2E2E2E2E2E2E2E1E1E1E1E1E1E1E1E1E1E1E1E1E1E1E1E1E1E1E1E1E1E1E1E1E1E1E1E1E1E1E1E1E1E1E1E1E2E1E1
310
E1E1E1E1E1E1E1E1E1E1E1E1E1E1E1E1E1E1E1E1E1E1E1E1E1E1E1E1E1E1E1E1E1E1E1E1E1E1E1E1E1E1E1E1E1E1E1E1E1E1E1E1E1E1E1E1E1E1E1E1E1E1F0E2E2E2E2E2E1E1E1E1E1E1E1E1E1E1E1E1E1E1E1E1E1E1E1E1E1E1E1E1E1E1E1E1E1E1E1E1E1E1E1E1E1E1E1E1E1E1E1E1E1E1E1E1E2E1E1E1E1E1E1E1E1E1E1
310
E1E1E1E1E1E2E1E1E1E1E1E1E1E1E1E1E1E1E1E1E1E1E1E1E1E1E1E1E1E1E1E1E1E1E1E2E1E1E1E1E1E1E1E1E1E1E1E1E1E1E1E1E1E1E1E1E1E1E1E1E1E1E1E1E1E1E1E1E1E1E1E1E1E1E1E1E1E1E1E1E1E1E1E1E1E1E1E1E1E1E1E1E1E1E1E1E1E1E1E1E1E1E1E1E1E1E1E1E1E1E1E1E1E1E1E1E1E1E1E1E1E1E1E1E1E1E2
310
E1E1E1E1E1E1E1E1E1E1E1E1E1E1E1E1E1E1E1E1E1E1E1E1E1E1E1E1E1E1E1E1E1E1E1E1E1E1E1E1E1E1E1E1E1E1E1E1E1E1E1E1E1E1E1E1E1E1E1E1E1E1E1E1E1E1E1E1E1E1E1E1E1E1E1E1E1E1E1E1E1E1E1E1E1E1E1E1E1E1E1E1E1E1E1E1E1E1E1E1E1E1E1E1E1E1E1E1E1E1E1E1E1E1E1E1E1E1E2E1E1E1E1E1E1E1E1
310
E1E1E1E1E1E1E1E2E1E1E1E1E1E1E1E1E1E1E1E1E1E1E1E1E1E1E1E1E1E1E1E1E1E1E1E1E1E2E1E1E1E1E1E1E1E1E1E1E1E1E1E1E1E1E1E1E1E1E1E1E1E1E1E1E1E1E1E1E1E1E1E1E1E1E1E1E1E1E1E1E1E1E1E1E1E1E1E1E1E1E1E1E1E1E1E1E1E1E1E1E1E1E1E1E1E1E1E1E1E1E1E1E1E1E1E1E1E1E1E1E1E1E1E1E1E1E1
310
E1E2E1E1E1E1E1E1E1E1E1E1E1E1E1E1E1E1E1E1E1E1E1E1E1E1E1E1E1E1E1E1E1E1E1E1E1E1E1E1E1E1E1E1E1E1E1E1E1E1E1E1E1E1E1E1E1E1E1E1E1E1E1E1E1E1E1E1E1E1E1E1E1E1E1E1E1E1E1E1E1E1E1E1E1E1E1E1E1E1E1E1E1E1E1E1E1E1E1E1E1E1E1E1E1E1E1E1E1E1E1E1E1E1E1E1E1E1E1E1E2E1E1E1E1E1E1
310
E1E1E1E1E1E1E1E1E1E2E1E1E1E1E1E1E1E1E1E1E1E1E1E1E1E1E1E1E1E1E1E1E1E1E1E1E1E1E1E2E1E1E1E1E1E1E1E1E1E1E1E1E1E1E1E1E1E1E1E1E1E1E1E1E1E1E1E1E1E1E1E1E1E1E1E1E1E1E1E1E1E1E1E1E1E1E1E1E1E1E1E1E1E1E1E1E1E1E1E1E1E1E1E1E1E1E1E1E1E1E1E1E1E1E1E1E1E1E1E1E1E1E1E1E1E1E1
310
E1E1E1E2E1E1E1E1E1E1E1E1E1E1E1E1E1E1E1E1E1E1E1E1E1E1E1E1E1E1E1E1E1E1E1E1E1E1E1E1E1E1E1E1E1E1E1E1E1E1E1E1E1E1E1E1E1E1E1E1E1E1E1E1E1E1E1E1E1E1E1E1E1E1E1E1E1E1E1E1E1E1E1E1E1E1E1E1E1E1E1E1E1E1E1E1E1E1E1E1E1E1E1E1E1E1E1E1E1E1E1E1E1E1E1E1E1E1E1E1E1E1E2E1E1E1E1
310
E1E1E1E1E1E1E1E1E1E1E1E2E1E1E1E1E1E1E1E1E1E1E1E1E1E1E1E1E1E1E1E1E1E1E1E1E1E1E1E1E1E2E1E1E1E1E1E1E1E1E1E1E1E1E1E1E1E1E1E1E1E1E1E1E1E1E1E1E1E1E1E1E1E1E1E1E1E1E1E1E1E1E1E1E1E1E1E1E1E1E1E1E1E1E1E1E1E1E1E1E1E1E1E1E1E1E1E1E1E1E1E1E1E1E1E1E1E1E1E1E1E1E1E1E1E1E1
310
E1E1E1E1E1E2E1E1E1E1E1E1E1E1E1E1E1E1E1E1E1E1E1E1E1E1E1E1E1E1E1E1E1E1E1E1E1E1E1E1E1E1E1E1E1E1E1E1E1E1E1E1E1E1E1E1E1E1E1E1E1E1E1E1E1E1E1E1E1E1E1E1E1E1E1E1E1E1E1E1E1E1E1E1E1E1E1E1E1E1E1E1E1E1E1E1E1E1E1E1E1E1E1E1E1E1E1E1E1E1E1E1E1E1E1E1E1E1E1E1E1E1E1E1E2E1E1
310
E1E1E1E1E1E1E1E1E1E1E1E1E1E2E1E1E1E1E1E1E1E1E1E1E1E1E1E1E1E1E1E1E1E1E1E1E1E1E1E1E1E1E1E2E1E1E1E1E1E1E1E1E1E1E1E1E1E1E1E1E1E1E1E1E1E1E1E1E1E1E1E1E1E1E1E1E1E1E1E1E1E1E1E1E1E1E1E1E1E1E1E1E1E1E1E1E1E1E1E1E1E1E1E1E1E1E1E1E1E1E1E1E1E1E1E1E1E1E1E1E1E1E1E1E1E1E1
310
E1E1E1E1E1E1E1E2E1E1E1E1E1E1E1E1E1E1E1E1E1E1E1E1E1E1E1E1E1E1E1E1E1E1E1E1E1E1E1E1E1E1E1E1E1E1E1E1E1E1E1E1E1E1E1E1E1E1E1E1E1E1E1E1E1E1E1E1E1E1E1E1E1E1E1E1E1E1E1E1E1E1E1E1E1E1E1E1E1E1E1E1E1E1E1E1E1E1E1E1E1E1E1E1E1E1E1E1E1E1E1E1E1E1E1E1E1E1E1E1E1E1E1E1E1E1E2
310
E1E1E1E1E1E1E1E1E1E1E1E1E1E1E1E2E1E1E1E1E1E1E1E1E1E1E1E1E1E1E1E1E1E1E1E1E1E1E1E1E1E1E1E1E1E2E1E1E1E1E1E1E1E1E1E1E1E1E1E1E1E1E1E1E1E1E1E1E1E1E1E1E1E1E1E1E1E1E1E1E1E1E1E1E1E1E1E1E1E1E1E1E1E1E1E1E1E1E1E1E1E1E1E1E1E1E1E1E1E1E1E1E1E1E1E1E1E1E1E1E1E1E1E1E1E1E1
310
E1E1E1E1E1E1E1E1E1E2E1E1E1E1E1E1E1E1E1E1E1E1E1E1E1E1E1E1E1E1E1E1E1E1E1E1E1E1E1E1E1E1E1E1E1E1E1E1E1E1E1E1E1E1E1E1E1E1E1E1E1E1E1E1E1E1E1E1E1E1E1E1E1E1E1E1E1E1E1E1E1E1E1E1E1E1E1E1E1E1E1E1E1E1E1E1E1E1E1E1E1E1E1E1E1E1E1E1E1E1E1E1E1E1E1E1E1E1E1E1E1E1E1E1E1E1E1
310
E1E2E1E1E1E1E1E1E1E1E1E1E1E1E1E1E1E2E1E1E1E1E1E1E1E1E1E1E1E1E1E1E1E1E1E1E1E1E1E1E1E1E1E1E1E1E1E2E1E1E1E1E1E1E1E1E1E1E1E1E1E1E1E1E1E1E1E1E1E1E1E1E1E1E1E1E1E1E1E2E2E1E1E1E1E1E1E1E1E1E2E2E1E1E1E1E1E1E1E1E2E2E1E1E1E1E1E1E1E1E1E1E1E1E1E1E1E1E1E1E1E1E1E1E1E1E1
310
E1E1E1E1E1E1E1E1E1E1E1E2E1E1E1E1E1E1E1E1E1E1E1E1E1E1E1E1E1E1E1E1E1E1E1E1E1E1E1E1E1E1E1E1E1E1E1E1E1E1E1E1E1E1E1E1E1E1E1E1E1E1E1E1E1E1E1E1E1E1E1E1E1E1E1E1E1E1E1E1E1E1E1E1E1E1E1E1E1E1E1E1E1E1E1E1E1E1E1E1E1E1E1E1E1E1E1E1E1E1E1E1E1E1E1E1E1E1E1E1E1E1E1E1E1E1E1
310
E1E1E1E2E1E1E1E1E1E1E1E1E1E1E1E1E1E1E1E2E1E1E1E1E1E1E1E1E1E1E1E1E1E1E1E1E1E1E1E1E1E1E1E1E1E1E1E1E1E2E1E1E1E1E1E1E1E1E1E1E1E1E1E1E1E1E1E1E1E1E1E1E1E1E1E1E1E1E1E1E1E2E2E1E1E1E1E1E1E1E1E1E2E2E1E1E1E1E1E1E1E1E2E2E1E1E1E1E1E1E1E1E1E1E1E1E1E1E1E1E1E1E1E1E1E1E1
310
E1E1E1E1E1E1E1E1E1E1E1E1E1E2E1E1E1E1E1E1E1E1E1E1E1E1E1E1E1E1E1E1E1E1E1E1E1E1E1E1E1E1E1E1E1E1E1E1E1E1E1E1E1E1E1E1E1E1E1E1E1E1E1E1E1E1E1E1E1E1E1E1E1E1E1E1E1E1E1E1E1E1E1E1E1E1E1E1E1E1E1E1E1E1E1E1E1E1E1E1E1E1E1E1E1E1E1E1E1E1E1E1E1E1E1E1E1E1E1E1E1E1E1E1E1E1E1
310
E1E1E1E1E1E2E1E1E1E1E1E1E1E1E1E1E1E1E1E1E1E2E1E1E1E1E1E1E1E1E1E1E2E2E1E1E1E1E1E1E1E1E1E1E1E1E1E1E1E1E1E2E1E1E1E1E1E1E1E1E1E1E1E1E1E1E1E1E1E1E1E1E1E1E1E1E1E1E1E1E1E1E1E2E2E1E1E1E1E1E1E1E1E1E2E2E1E1E1E1E1E1E1E1E2E2E1E1E1E1E1E1E1E1E1E1E1E1E1E1E1E1E1E1E1E1E1
310
E1E1E1E1E1E1E1E1E1E1E1E1E1E1E1E2E1E1E1E1E1E1E1E1E1E1E1E1E1E1E1E1E1E1E1E1E1E1E1E1E1E1E1E1E1E1E1E1E1E1E1E1E1E1E1E1E1E1E1E1E1E1E1E1E1E1E1E1E1E1E1E1E1E1E1E1E1E1E1E1E1E1E1E1E1E1E1E1E1E1E1E1E1E1E1E1E1E1E1E1E1E1E1E1E1E1E1E1E1E1E1E1E1E1E1E1E1E1E1E1E1E1E1E1E1E1E1
310
E1E1E1E1E1E1E1E2E1E1E1E1E1E1E1E1E1E1E1E1E1E1E1E2E1E1E1E1E1E1E1E1E1E1E2E2E1E1E1E1E1E1E1E1E1E1E1E1E1E1E1E1E1E2E1E1E1E1E1E1E1E1E1E1E1E1E1E1E1E1E1E1E1E1E1E1E1E1E1E1E1E1E1E1E1E2E2E1E1E1E1E1E1E1E1E1E2E2E1E1E1E1E1E1E1E1E2E2E1E1E1E1E1E1E1E1E1E1E1E1E1E1E1E1E1E1E1
310
E1E1E1E1E1E1E1E1E1E1E1E1E1E1E1E1E1E2E1E1E1E1E1E1E1E1E1E1E1E1E1E1E1E1E1E1E1E1E1E1E1E1E1E1E1E1E1E1E1E1E1E1E1E1E1E1E1E1E1E1E1E1E1E1E1E1E1E1E1E1E1E1E1E1E1E1E1E1E1E1E1E1E1E1E1E1E1E1E1E1E1E1E1E1E1E1E1E1E1E1E1E1E1E1E1E1E1E1E1E1E1E1E1E1E1E1E1E1E1E1E1E1E1E1E1E1E1
310
E1E1E1E1E1E1E1E1E1E2E1E1E1E1E1E1E1E1E1E1E1E1E1E1E1E2E1E1E1E1E1E1E1E1E1E1E2E2E1E1E1E1E1E1E1E1E1E1E1E1E1E1E1E1E1E2E1E1E1E1E1E1E1E1E1E1E1E1E1E1E1E1E1E1E1E1E1E1E1E1E1E1E1E1E1E1E1E2E2E1E1E1E1E1E1E1E1E1E2E2E1E1E1E1E1E1E1E1E2E2E1E1E1E1E1E1E1E1E1E1E1E1E1E1E1E1E1
310
E1E1E1E1E1E1E1E1E1E1E1E1E1E1E1E1E1E1E1E2E1E1E1E1E1E1E1E1E1E1E1E1E1E1E1E1E1E1E1E1E1E1E1E1E1E1E1E1E1E1E1E1E1E1E1E1E1E1E1E1E1E1E1E1E1E1E1E1E1E1E1E1E1E1E1E1E1E1E1E1E1E1E1E1E1E1E1E1E1E1E1E1E1E1E1E1E1E1E1E1E1E1E1E1E1E1E1E1E1E1E1E1E1E1E1E1E1E1E1E1E1E1E1E1E1E1E1
310
E1E1E1E1E1E1E1E1E1E1E1E2E1E1E1E1E1E1E1E1E1E1E1E1E1E1E1E2E1E1E1E1E1E1E1E1E1E1E2E2E1E1E1E1E1E1E1E1E1E1E1E1E1E1E1E1E1E2E1E1E1E1E1E1E1E1E1E1E1E1E1E1E1E1E1E1E1E1E1E1E1E1E1E1E1E1E1E1E1E2E2E1E1E1E1E1E1E1E1E1E2E2E1E1E1E1E1E1E1E1E2E2E1E1E1E1E1E1E1E1E1E1E1E1E1E1E1
310
E1E1E1E1E1E1E1E1E1E1E1E1E1E1E1E1E1E1E1E1E1E2E1E1E1E1E1E1E1E1E1E1E1E1E1E1E1E1E1E1E1E1E1E1E1E1E1E1E1E1E1E1E1E1E1E1E1E1E1E1E1E1E1E1E1E1E1E1E1E1E1E1E1E1E1E1E1E1E1E1E1E1E1E1E1E1E1E1E1E1E1E1E1E1E1E1E1E1E1E1E1E1E1E1E1E1E1E1E1E1E1E1E1E1E1E1E1E1E1E1E1E1E1E1E1E1E1
310
E1E1E1E1E1E1E1E1E1E1E1E1E1E2E1E1E1E1E1E1E1E1E1E1E1E1E1E1E1E2E1E1E1E1E1E1E1E1E1E1E2E2E1E1E1E1E1E2E2E1E1E1E1E1E1E1E1E1E1E2E1E1E1E1E1E1E1E1E1E1E1E1E1E1E1E1E1E1E1E1E1E1E1E1E1E1E1E1E1E1E1E2E2E1E1E1E1E1E1E1E1E1E2E2E1E1E1E1E1E1E1E1E2E2E1E1E1E1E1E1E1E1E1E1E1E1E1
310
E1E1E1E1E1E1E1E1E1E1E1E1E1E1E1E1E1E1E1E1E1E1E1E2E1E1E1E1E1E1E1E1E1E1E1E1E1E1E1E1E1E1E1E1E1E1E1E1E1E1E1E1E1E1E1E1E1E1E1E1E1E1E1E1E1E1E1E1E1E1E1E1E1E1E1E1E1E1E1E1E1E1E1E1E1E1E1E1E1E1E1E1E1E1E1E1E1E1E1E1E1E1E1E1E1E1E1E1E1E1E1E1E1E1E1E1E1E1E1E1E1E1E1E1E1E1E1
310
E1E1E1E1E1E1E1E1E1E1E1E1E1E1E1E2E1E1E1E1E1E1E1E1E1E1E1E1E1E1E1E2E1E1E1E1E1E1E1E1E1E1E2E2E1E1E1E1E1E2E2E1E1E1E1E1E1E1E1E1E1E2E1E1E1E1E1E1E1E1E1E1E1E1E1E1E1E1E1E1E1E1E1E1E1E1E1E1E1E1E1E1E1E2E2E1E1E1E1E1E1E1E1E1E2E2E1E1E1E1E1E1E1E1E2E2E1E1E1E1E1E1E1E1E1E1E1
310
E1E1E1E1E1E1E1E1E1E1E1E1E1E1E1E1E1E1E1E1E1E1E1E1E1E2E1E1E1E1E1E1E1E1E1E1E1E1E1E1E1E1E1E1E1E1E1E1E1E1E1E1E1E1E1E1E1E1E1E1E1E1E1E1E1E1E1E1E1E1E1E1E1E1E1E1E1E1E1E1E1E1E1E1E1E1E1E1E1E1E2E2E2E2E2E2E1E1E1E1E1E1E1E1E1E1E1E1E1E2E2F0E2F0E2E2E1E1E1E1E1E1E1E1E1E1E1
310
E1E1E1E1E1E1E1E1E1E1E1E1E1E1E1E1E1E2E1E1E1E1E1E1E1E1E1E1E1E1E1E1E1E2E1E1E1E1E1E1E1E1E1E1E2E2E1E1E1E1E1E2E2E1E1E1E1E1E1E1E1E1E1E2E1E1E1E1E1E1E1E1E1E1E1E1E1E1E1E1E1E1E1E1E1E1E1E1E1E1E1E1E1E1E1E2E2E1E1E1E1E1E1E1E1E1E2E2E1E1E1E1E1E1E1E1E2E2E1E1E1E1E1E1E1E1E1
310
E1E1E1E1E1E1E1E1E1E1E1E1E1E1E1E1E1E1E1E1E1E1E1E1E1E1E1E2E1E1E1E1E1E1E1E1E1E1E1E1E1E1E1E1E1E1E1E1E1E1E1E1E1E1E1E1E1E1E1E1E1E1E1E1E1E1E1E1E1E1E1E1E1E1E1E1E1E1E1E1E1E1E1E1E1E1E1E1E1E1E1E1E1E1E1E2E2E1E1E1E1E1E1E1E1E1E1E1E1E1E1F0F0E1E1E1F0F0E1E1E1E1E1E1E1E1E1
310
E1E1E1E1E1E1E1E1E1E1E1E1E1E1E1E1E1E1E1E2E1E1E1E1E1E1E1E1E1E1E1E1E1E1E1E2E1E1E1E1E1E1E1E1E1E1E2E2E1E1E1E1E1E2E2E1E1E1E1E1E1E1E1E1E1E2E1E1E1E1E1E1E1E1E1E1E1E1E1E1E1E1E1E1E1E1E1E1E1E1E1E1E1E1E1E1E1E2E2E1E1E1E1E1E1E1E1E1E2E2E1E1E1E1E1E1E1E1E2E2E1E1E1E1E1E1E1
310
E1E1E1E1E1E1E1E1E1E1E1E1E1E1E1E1E1E1E1E1E1E1E1E1E1E1E1E1E1E2E1E1E1E1E1E1E1E1E1E1E1E1E1E1E1E1E1E1E1E1E1E1E1E1E1E1E1E1E1E1E1E1E1E1E1E1E1E1E1E1E1E1E1E1E1E1E1E1E1E1E1E1E1E1E1E1E1E1E1E1E1E1E1E1E1E2E2E1E1E1E1E1E1E1E1E1E1E1E1E1E1E1E1E2E2E1E2E2E2E2E1E1E1E1E1E1E1
310
E1E1E1E1E1E1E1E1E1E1E1E1E1E1E1E1E1E1E1E1E1E2E1E1E1E1E1E1E1E1E1E1E1E1E1E1E1E2E1E1E1E1E1E1E1E1E1E1E2E2E1E1E2E1E1E2E2E1E1E1E1E1E1E1E1E1E1E2E1E1E1E1E1E1E1E1E1E1E1E1E1E1E1E1E1E1E1E1E1E1E1E1E1E1E1E1E1E1E1E2E2E1E1E1E1E1E1E1E1E1E2E2E1E1E1E1E1E1E1E1E2E2E1E1E1E1E1
310
E1E1E1E1E1E1E1E1E1E1E1E1E1E1E1E1E1E1E1E1E1E1E1E1E1E1E1E1E1E1E1E2E1E1E1E1E1E1E1E1E1E1E1E1E1E1E1E1E1E1E1E1E1E1E1E1E1E1E1E1E1E1E1E1E1E1E1E1E1E1E1E1E1E1E1E1E1E1E1E1E1E1E1E1E1E1E1E1E1E1E1E1E1E1E1E1E2E1E1E1E1E1E1E1E1E1E1E1E1E1E1E1E1E1E1E2E2E2E2E2E2E2E1E1E1E1E1
310
E1E1E1E1E1E1E1E1E1E1E1E1E1E1E1E1E1E1E1E1E1E1E1E2E1E1E1E1E1E1E1E1E1E1E1E1E1E1E1E2E1E1E1E1E1E1E1E1E1E1E2E2E2E2E2E2E2E2E2E1E1E1E1E1E1E1E1E1E1E2E1E1E1E1E1E1E1E1E1E1E1E1E1E1E1E1E1E1E1E1E1E1E1E1E1E1E1E2E2E2E2E2E2E2E2E2E1E1E1E1E1E1E2E2E2E2E2E2E2E2E2E2E2E2E1E1E1
310
E1E1E1E1E1E1E1E1E1E1E1E1E1E1E1E1E1E1E1E1E1E1E1E1E1E1E1E1E1E1E1E1E1E2E1E1E1E1E1E1E1E1E1E1E1E1E1E1E1E1E1E1E1E1E1E1E1E1E1E1E1E1E1E1E1E1E1E1E1E1E1E1E1E1E1E1E1E1E1E1E1E1E1E1E1E1E1E1E1E1E1E1E1E1E1E1E1E1E1E1E1E1E1E1E1E1E1E1E1E1E1E1E1E1E1E1E1E2E2E1E1E1E2E2E1E1E1
310
E1E1E1E1E1E1E1E1E1E1E1E1E1E1E1E1E1E1E1E1E1E1E1E1E1E2E1E1E1E1E1E1E1E1E1E1E1E1E1E1E1E2E1E1E1E1E1E1E1E1E1E1E2E2E1E1E2E1E1E2E2E1E1E1E1E1E1E1E1E1E1E2E1E1E1E1E1E1E1E1E1E1E1E1E1E1E1E1E1E1E1E1E1E1E1E1E1E1E1E2E1E1E1E2E2E1E2E2E1E1E1E1E1E1E2E2E1E1E1E1E1E1E1E1E2E2E1
310
E1E1E1E1E1E1E1E1E1E1E1E1E1E1E1E1E1E1E1E1E1E1E1E1E1E1E1E1E1E1E1E1E1E1E1E2E1E1E1E1E1E1E1E1E1E1E1E1E1E1E1E1E1E1E1E1E1E1E1E1E1E1E1E1E1E1E1E1E1E1E1E1E1E1E1E1E1E1E1E1E1E1E1E1E1E1E1E1E1E1E1E1E1E1E1E1E1E1E1E1E1E1E1E1E1E1E1E1E1E1E1E1E1E1E1E1E1E1E1E1E2E2E2E2E2E1E1
310
E1E1E1E1E1E1E1E1E1E1E1E1E1E1E1E1E1E1E1E1E1E1E1E1E1E1E1E2E1E1E1E1E1E1E1E1E1E1E1E1E1E1E1E2E1E1E1E1E1E1E1E1E1E2E2E2E1E1E2E1E1E1E2E2E1E1E1E1E1E1E1E1E1E2E1E1E1E1E1E1E1E1E1E1E1E1E1E1E1E1E1E1E1E1E1E1E1E1E1E1E1E2E1E1E1E2E2E1E2E2E1E1E1E1E1E1E2E2E1E1E1E1E1E1E1E1E2
310
E2E1E1E1E1E1E1E1E1E1E1E1E1E1E1E1E1E1E1E1E1E1E1E1E1E1E1E1E1E1E1E1E1E1E1E1E1E2E1E1E1E1E1E1E1E1E1E1E1E1E1E1E1E1E1E1E1E1E1E1E1E1E1E1E1E1E1E1E1E1E1E1E1E1E1E1E1E1E1E1E1E1E1E1E1E1E1E1E1E1E1E1E1E1E1E1E1E1E1E1E1E1E1E1E1E1E1E1E1E1E1E1E1E1E1E1E1E1E1E1E1E1E1E1E1E1E1
310
E1E1E1E1E1E1E1E1E1E1E1E1E1E1E1E1E1E1E1E1E1E1E1E1E1E1E1E1E1E2E1E1E1E1E1E1E1E1E1E1E1E1E1E1E1E2E1E1E1E1E1E1E1E1E1E2E2E2E2E2E2E2E2E1E1E1E2E2E1E1E1E1E1E1E1E2E1E1E1E1E1E1E1E1E1E1E1E1E1E1E1E1E1E1E1E1E1E1E1E1E1E1E1E2E1E1E1E2E2E1E2E2E1E1E1E1E1E1E2E2E1E1E1E1E1E1E1
310
E1E2E2E1E1E1E1E1E1E1E1E1E1E1E1E1E1E1E1E1E1E1E1E1E1E1E1E1E1E1E1E1E1E1E1E1E1E1E1E2E1E1E1E1E1E1E1E1E1E1E1E1E1E1E1E1E1E1E1E1E1E1E1E1E1E1E1E1E1E1E1E1E1E1E1E1E1E1E1E1E1E1E1E1E1E1E1E1E1E1E1E1E1E1E1E1E1E1E1E1E1E1E1E1E1E1E1E1E1E1E1E1E1E1E1E1E1E1E1E1E1E1E1E1E1E1E1
310
E1E1E1E1E1E1E1E1E1E1E1E1E1E1E1E1E1E1E1E1E1E1E1E1E1E1E1E1E1E1E1E2E1E1E1E1E1E1E1E1E1E1E1E1E1E1E1E2E1E1E1E1E1E1E1E1E1E2E2E2E1E2E2E1E1E2E1E1E2E2E1E1E1E1E1E1E1E2E1E1E1E1E1E1E1E1E1E1E1E1E1E1E1E1E1E1E1E1E1E1E1E1E1E1E1E2E2E2E2E2E2E2E2E2E1E1E1E1E1E1E2E2E2E2E2E2E2
310
E2E2E2E2E2E1E1E1E1E1E1E1E1E1E1E1E1E1E1E1E1E1E1E1E1E1E1E1E1E1E1E1E1E1E1E1E1E1E1E1E1E2E1E1E1E1E1E1E1E1E1E1E1E1E1E1E1E1E1E1E1E1E1E1E1E1E1E1E1E1E1E1E1E1E1E1E1E1E1E1E1E1E1E1E1E1E1E1E1E1E1E1E1E1E1E1E1E1E1E1E1E1E1E1E1E1E1E1E1E1E1E1E1E1E1E1E1E1E1E1E1E1E1E1E1E1E1
310
E1E1E1E1E1E1E1E1E1E1E1E1E1E1E1E1E1E1E1E1E1E1E1E1E1E1E1E1E1E1E1E1E1E2E1E1E1E1E1E1E1E1E1E1E1E1E1E1E1E2E1E1E1E1E1E1E1E1E1E2E1E2E2E1E1E2E2E1E2E2E2E2E1E1E1E1E1E1E1E2E1E1E1E1E1E1E1E1E1E1E1E1E1E1E1E1E1E1E1E1E1E1E1E1E1E1E1E1E2E2E2E2E2E2E2E2E1E1E1E1E1E1E1E2E2E2E2
310
E2E2E2E2E2E2E1E1E1E1E1E1E1E1E1E1E1E1E1E1E1E1E1E1E1E1E1E1E1E1E1E1E1E1E1E1E1E1E1E1E1E1E1E2E1E1E1E1E1E1E1E1E1E1E1E1E1E1E1E1E1E1E1E1E1E1E1E1E1E1E1E1E1E1E1E1E1E1E1E1E1E1E1E1E1E1E1E1E1E1E1E1E1E1E1E1E1E1E1E1E1E1E1E1E1E1E1E1E1E1E1E1E1E1E1E1E1E1E1E1E1E1E1E1E1E1E1
310
E1E1E1E1E1E1E1E1E1E1E1E1E1E1E1E1E1E1E1E1E1E1E1E1E1E1E1E1E1E1E1E1E1E1E1E2E1E1E1E1E1E1E1E1E1E1E1E1E1E1E1E2E1E1E1E1E1E1E1E1E1E2E2E1E1E1E1E1E1E2E2E1E2E2E1E1E1E1E1E1E1E2E1E1E1E1E1E1E1E1E1E1E1E1E1E1E1E1E1E1E1E1E1E1E1E1E1E1E1E1E1E1E1E1E1E1E1E1E1E1E1E1E1E1E1E1E1
310
E1E1E1E1E1E1E1E1E1E1E1E1E1E1E1E1E1E1E1E1E1E1E1E1E1E1E1E1E1E1E1E1E1E1E1E1E1E1E1E1E1E1E1E1E1E2E1E1E1E1E1E1E1E1E1E1E1E1E1E1E1E1E1E1E1E1E1E1E1E1E1E1E1E1E1E1E1E1E1E1E1E1E1E1E1E1E1E1E1E1E1E1E1E1E1E1E1E1E1E1E1E1E1E1E1E1E1E1E1E1E1E1E1E1E1E1E1E1E1E1E1E1E1E1E1E1E1
310
E1E1E1E1E1E1E1E1E1E1E1E1E1E1E1E1E1E1E1E1E1E1E1E1E1E1E1E1E1E1E1E1E1E1E1E1E1E2E1E1E1E1E1E1E1E1E1E1E1E1E1E1E1E2E1E1E1E1E1E1E1E1E1E1E2E2E1E1E1E1E1E1E1E2E2E1E1E1E1E1E1E1E1E2E1E1E1E1E1E1E1E1E1E1E1E1E1E1E1E1E1E1E1E1E1E1E1E1E1E1E1E1E1E1E1E1E1E1E1E1E1E1E1E1E1E1E1
310
E1E1E1E1E1E1E1E1E1E1E1E1E1E1E1E1E1E1E1E1E1E1E1E1E1E1E1E1E1E1E1E1E1E1E1E1E1E1E1E1E1E1E1E1E1E1E1E2E1E1E1E1E1E1E1E1E1E1E1E1E1E1E1E1E1E1E1E1E1E1E1E1E1E1E1E1E1E1E1E1E1E1E1E1E1E1E1E1E1E1E1E1E1E1E1E1E1E1E1E1E1E1E1E1E1E1E1E1E1E1E1E1E1E1E1E1E1E1E1E1E1E1E1E1E1E1E1
310
E1E1E1E1E1E1E1E1E1E1E1E1E1E1E1E1E1E1E1E1E1E1E1E1E1E1E1E1E1E1E1E1E1E1E1E1E1E1E1E2E1E1E1E1E1E1E1E1E1E1E1E1E1E1E1E2E1E1E1E1E1E1E1E1E1E1E1E1E2E1E1E1E1E1E2E2E1E1E1E1E1E1E1E1E1E2E1E1E1E1E1E1E1E1E1E1E1E1E1E1E1E1E1E1E1E1E1E1E1E1E1E1E1E1E1E1E1E1E1E1E1E1E1E1E1E1E1
310
E1E1E1E1E1E1E1E1E1E1E1E1E1E1E1E1E1E1E1E1E1E1E1E1E1E1E1E1E1E1E1E1E1E1E1E1E1E1E1E1E1E1E1E1E1E1E1E1E1E2E1E1E1E1E1E1E1E1E1E1E1E1E1E1E1E1E1E1E1E1E1E1E1E1E1E1E1E1E1E1E1E1E1E1E1E1E1E1E1E1E1E1E1E1E1E1E1E1E1E1E1E1E1E1E1E1E1E1E1E1E1E1E1E1E1E1E1E1E1E1E1E1E1E1E1E1E1
310
E1E1E1E1E1E1E1E1E1E1E1E1E1E1E1E1E1E1E1E1E1E1E1E1E1E1E1E1E1E1E1E1E1E1E1E1E1E1E1E1E1E2E1E1E1E1E1E1E1E1E1E1E1E1E1E1E1E2E1E1E1E1E1E1E1E1E1E1E1E1E1E2E2E1E2E2E1E1E1E1E1E1E1E1E1E1E1E2E1E1E1E1E1E1E1E1E1E1E1E1E1E1E1E1E1E1E1E1E1E1E1E1E1E1E1E1E1E1E1E1E1E1E1E1E1E1E1
310
E1E1E1E1E1E1E1E1E1E1E1E1E1E1E1E1E1E1E1E1E1E1E1E1E1E1E1E1E1E1E1E1E1E1E1E1E1E1E1E1E1E1E1E1E1E1E1E1E1E1E1E2E1E1E1E1E1E1E1E1E1E1E1E1E1E1E1E1E1E1E1E1E1E1E1E1E1E1E1E1E1E1E1E1E1E1E1E1E1E1E1E1E1E1E1E1E1E1E1E1E1E1E1E1E1E1E1E1E1E1E1E1E1E1E1E1E1E1E1E1E1E1E1E1E1E1E1
310
E1E1E1E1E1E1E1E1E1E1E1E1E1E1E1E1E1E1E1E1E1E1E1E1E1E1E1E1E1E1E1E1E1E1E1E1E1E1E1E1E1E1E1E2E1E1E1E1E1E1E1E1E1E1E1E1E1E1E1E2E1E1E1E1E1E1E1E1E1E1E1E1E1E1E1E2E1E1E1E1E1E1E1E1E1E1E1E1E1E2E1E1E1E1E1E1E1E1E1E1E1E1E1E1E1E1E1E1E1E1E1E1E1E1E1E1E1E1E1E1E1E1E1E1E1E1E1
310
E1E1E1E1E1E1E1E1E1E1E1E1E1E1E1E1E1E1E1E1E1E1E1E1E1E1E1E1E1E1E1E1E1E1E1E1E1E1E1E1E1E1E1E1E1E1E1E1E1E1E1E1E1E2E1E1E1E1E1E1E1E1E1E1E1E1E1E1E1E1E1E1E1E1E1E1E1E1E1E1E1E1E1E1E1E1E1E1E1E1E1E1E1E1E1E1E1E1E1E1E1E1E1E1E1E1E1E1E1E1E1E1E1E1E1E1E1E1E1E1E1E1E1E1E1E1E1
310
E1E1E1E1E1E1E1E1E1E1E1E1E1E1E1E1E1E1E1E1E1E1E1E1E1E1E1E1E1E1E1E1E1E1E1E1E1E1E1E1E1E1E1E1E1E2E1E1E1E1E1E1E1E1E1E1E1E1E1E1E1E2E1E1E1E1E1E1E1E1E1E1E1E1E1E1E1E1E1E1E1E1E1E1E1E1E1E1E1E1E1E2E1E1E1E1E1E1E1E1E1E1E1E1E1E1E1E1E1E1E1E1E1E1E1E1E1E1E1E1E1E1E1E1E1E1E1
310
E1E1E1E1E1E1E1E1E1E1E1E1E1E1E1E1E1E1E1E1E1E1E1E1E1E1E1E1E1E1E1E1E1E1E1E1E1E1E1E1E1E1E1E1E1E1E1E1E1E1E1E1E1E1E1E2E1E1E1E1E1E1E1E1E1E1E1E1E1E1E1E1E1E1E1E1E1E1E1E1E1E1E1E1E1E1E1E1E1E1E1E1E1E1E1E1E1E1E1E1E1E1E1E1E1E1E1E1E1E1E1E1E1E1E1E1E1E1E1E1E1E1E1E1E1E1E1
310
E1E1E1E1E1E1E1E1E1E1E1E1E1E1E1E1E1E1E1E1E1E1E1E1E1E1E1E1E1E1E1E1E1E1E1E1E1E1E1E1E1E1E1E1E1E1E1E2E1E1E1E1E1E1E1E1E1E1E1E1E1E1E1E2E1E1E1E1E1E1E1E1E1E1E1E1E1E1E1E1E1E1E1E1E1E1E1E1E1E1E1E1E1E2E1E1E1E1E1E1E1E1E1E1E1E1E1E1E1E1E1E1E1E1E1E1E1E1E1E1E1E1E1E1E1E1E1
310
E1E1E1E1E1E1E1E1E1E1E2E2E2E2E2E2E2E2E2E2E1E1E1E1E1E1E1E1E1E1E1E1E1E1E1E1E1E1E1E1E1E1E1E1E1E1E1E1E1E1E1E1E1E1E1E1E1E2E1E1E1E1E1E1E1E1E1E1E1E1E1E1E1E1E1E1E1E1E1E1E1E1E1E1E1E1E1E1E1E1E1E1E1E1E1E1E1E1E1E1E1E1E1E1E1E1E1E1E1E1E1E1E1E1E1E1E1E1E1E1E1E1E1E1E1E1E1
310
E1E1E1E1E1E1E1E1E1E1E1E1E1E1E1E1E1E1E1E1E1E1E1E1E1E1E1E1E1E1E1E1E1E1E1E1E1E1E1E1E1E1E1E1E1E1E1E1E1E2E1E1E1E1E1E1E1E1E1E1E1E1E1E1E1E2E1E1E1E1E1E1E1E1E1E1E1E1E1E1E1E1E1E1E1E1E1E1E1E1E1E1E1E1E1E2E1E1E1E1E1E1E1E1E1E1E1E1E1E1E1E1E1E1E1E1E1E1E1E1E1E1E1E1E1E1E1
310
E1E1E1E1E1E1E1E1E1E1E1E1E2E2E2E2E2E2E2E2E2E2E1E1E1E1E1E1E1E1E1E1E1E1E1E1E1E1E1E1E1E1E1E1E1E1E1E1E1E1E1E1E1E1E1E1E1E1E1E2E1E1E1E1E1E1E1E1E1E1E1E1E1E1E1E1E1E1E1E1E1E1E1E1E1E1E1E1E1E1E1E1E1E1E1E1E1E1E1E1E1E1E1E1E1E1E1E1E1E1E1E1E1E1E1E1E1E1E1E1E1E1E1E1E1E1E1
310
E1E1E1E1E1E1E1E1E1E1E1E1E1E1E1E1E1E1E1E1E1E1E1E1E1E1E1E1E1E1E1E1E1E1E1E1E1E1E1E1E1E1E1E1E1E1E1E1E1E1E1E2E1E1E1E1E1E1E1E1E1E1E1E1E1E1E1E2E1E1E1E1E1E1E1E1E1E1E1E1E1E1E1E1E1E1E1E1E1E1E1E1E1E1E1E1E1E2E1E1E1E1E1E1E1E1E1E1E1E1E1E1E1E1E1E1E1E1E1E1E1E1E1E1E1E1E1
310
E1E1E1E1E1E1E1E1E1E1E1E1E1E2E2E1E1E1E1E1E1E1E1E2E2E1E1E1E1E1E1E1E1E1E1E1E1E1E1E1E1E1E1E1E1E1E1E1E1E1E1E1E1E1E1E1E1E1E1E1E1E2E1E1E1E1E1E1E1E1E1E1E1E1E1E1E1E1E1E1E1E1E1E1E1E1E1E1E1E1E1E1E1E1E1E1E1E1E1E1E1E1E1E1E1E1E1E1E1E1E1E1E1E1E1E1E1E1E1E1E1E1E1E1E1E1E1
310
E1E1E1E1E1E1E1E1E1E1E1E1E1E1E1E1E1E1E1E1E1E1E1E1E1E1E1E1E1E1E1E1E1E1E1E1E1E1E1E1E1E1E1E1E1E1E1E1E1E1E1E1E1E2E1E1E1E1E1E1E1E1E1E1E1E1E1E1E1E2E1E1E1E1E1E1E1E1E1E1E1E1E1E1E1E1E1E1E1E1E1E1E1E1E1E1E1E1E1E2E1E1E1E1E1E1E1E1E1E1E1E1E1E1E1E1E1E1E1E1E1E1E1E1E1E1E1
310
E1E1E1E1E1E1E1E1E1E1E1E1E1E1E1E2E2E1E1E1E1E1E1E1E1E2E2E1E1E1E1E1E1E1E1E1E1E1E1E1E1E1E1E1E1E1E1E1E1E1E1E1E1E1E1E1E1E1E1E1E1E1E1E2E1E1E1E1E1E1E1E1E1E1E1E1E1E1E1E1E1E1E1E1E1E1E1E1E1E1E1E1E1E1E1E1E1E1E1E1E1E1E1E1E1E1E1E1E1E1E1E1E1E1E1E1E1E1E1E1E1E1E1E1E1E1E1
310
E1E1E1E1E1E1E1E1E1E1E1E1E1E1E1E1E1E1E1E1E1E1E1E1E1E1E1E1E1E1E1E1E1E1E1E1E1E1E1E1E1E1E1E1E1E1E1E1E1E1E1E1E1E1E1E2E1E1E1E1E1E1E1E1E1E1E1E1E1E1E1E2E1E1E1E1E1E1E1E1E1E1E1E1E1E1E1E1E1E1E1E1E1E1E1E1E1E1E1E1E1E2E1E1E1E1E1E1E1E1E1E1E1E1E1E1E1E1E1E1E1E1E1E1E1E1E1
310
E1E1E1E1E1E1E1E1E1E1E1E1E1E1E1E1E1E1E2E1E1E1E1E1E1E1E1E2E1E1E1E1E1E1E1E1E1E1E1E1E1E1E1E1E1E1E1E1E1E1E1E1E1E1E1E1E1E1E1E1E1E1E1E1E1E2E1E1E1E1E1E1E1E1E1E1E1E1E1E1E1E1E1E1E1E1E1E1E1E1E1E1E1E1E1E1E1E1E1E1E1E1E1E1E1E1E1E1E1E1E1E1E1E1E1E1E1E1E1E1E1E1E1E1E1E1E1
310
E1E1E1E2E2E2E2E2E2E1E1E1E1E1E1E1E1E1E1E1E1E1E1E1E1E1E1E1E1E1E1E1E1E1E1E1E1E1E1E1E1E1E1E1E1E1E1E1E1E1E1E1E1E1E1E1E1E2E1E1E1E1E1E1E1E1E1E1E1E1E1E1E1E2E1E1E1E1E1E1E1E1E1E1E1E1E1E1E1E1E1E1E1E1E1E1E1E1E1E1E1E1E1E2E1E1E1E1E1E1E1E1E1E1E1E1E1E1E1E1E1E1E1E1E1E1E1
310
E1E1E1E1E1E1E1E1E1E1E1E1E1E1E1E1E1E1E1E1E2E1E1E1E1E1E1E1E1E2E1E1E1E1E1E1E1E1E1E1E1E1E1E1E1E1E1E1E1E1E1E1E1E1E1E1E1E1E1E1E1E1E1E1E1E1E1E2E1E1E1E1E1E1E1E1E1E1E1E1E1E1E1E1E1E1E1E1E1E1E1E1E1E1E1E1E1E1E1E1E1E1E1E1E1E1E1E1E1E1E1E1E1E1E1E1E1E1E1E1E1E1E1E1E1E1E1
310
E1E1E1E1E1E1E1E1E1E1E2E1E1E1E1E1E1E1E1E1E1E1E1E1E1E1E1E1E1E1E1E1E1E1E1E1E1E1E1E1E1E1E1E1E1E1E1E1E1E1E1E1E1E1E1E1E1E1E1E2E1E1E1E1E1E1E1E1E1E1E1E1E1E1E1E2E1E1E1E1E1E1E1E1E1E1E1E1E1E1E1E1E1E1E1E1E1E1E1E1E1E1E1E1E1E2E1E1E1E1E1E1E1E1E1E1E1E1E1E1E1E1E1E1E1E1E1
310
E1E1E1E1E1E1E1E1E1E1E1E1E1E1E1E1E1E1E1E1E1E1E2E1E1E1E1E1E1E1E1E2E1E1E1E1E1E1E1E1E1E1E1E1E1E1E1E1E1E1E1E1E1E1E1E1E1E1E1E1E1E1E1E1E1E1E1E1E1E2E1E1E1E1E1E1E1E1E1E1E1E1E1E1E1E1E1E1E1E1E1E1E1E1E1E1E1E1E1E1E1E1E1E1E1E1E1E1E1E1E1E1E1E1E1E1E1E1E1E1E1E1E1E1E1E1E1
310
E1E1E1E1E1E1E1E2E2E1E2E2E2E1E1E1E1E1E1E1E1E1E1E1E1E1E1E1E1E1E1E1E1E1E1E1E1E1E1E1E1E1E1E1E1E1E1E1E1E1E1E1E1E1E1E1E1E1E1E1E1E2E1E1E1E1E1E1E1E1E1E1E1E1E1E1E1E2E1E1E1E1E1E1E1E1E1E1E1E1E1E1E1E1E1E1E1E1E1E1E1E1E1E1E1E1E1E2E1E1E1E1E1E1E1E1E1E1E1E1E1E1E1E1E1E1E1
310
E1E1E1E1E1E1E1E1E1E1E1E1E1E1E1E1E1E1E1E1E1E1E1E1E2E1E1E1E1E1E1E1E1E2E1E1E1E1E1E1E1E1E1E1E1E1E1E1E1E1E1E1E1E1E1E1E1E1E1E1E1E1E1E1E1E1E1E1E1E1E1E2E1E1E1E1E1E1E1E1E1E1E1E1E1E1E1E1E1E1E1E1E1E1E1E1E1E1E1E1E1E1E1E1E1E1E1E1E1E1E1E1E1E1E1E1E1E1E1E1E1E1E1E1E1E1E1
310
E1E1E1E1E1E1E1E1E1E2E2E2E2E2E2E1E1E1E1E1E1E1E1E1E1E1E1E1E1E1E1E1E1E1E1E1E1E1E1E1E1E1E1E1E1E1E1E1E1E1E1E1E1E1E1E1E1E1E1E1E1E1E1E2E1E1E1E1E1E1E1E1E1E1E1E1E1E1E1E2E1E1E1E1E1E1E1E1E1E1E1E1E1E1E1E1E1E1E1E1E1E1E1E1E1E1E1E1E1E2E1E1E1E1E1E1E1E1E1E1E1E1E1E1E1E1E1
310
E1E1E1E1E1E1E1E1E1E1E1E1E1E1E1E1E1E1E1E1E1E1E1E1E1E1E2E2E2E2E2E2E2E2E2E2E1E1E1E1E1E1E1E1E1E1E1E1E1E1E1E1E1E1E1E1E1E1E1E1E1E1E1E1E1E1E1E1E1E1E1E1E1E2E1E1E1E1E1E1E1E1E1E1E1E1E1E1E1E1E1E1E1E1E1E1E1E1E1E1E1E1E1E1E1E1E1E1E1E1E1E1E1E1E1E1E1E1E1E1E1E1E1E1E1E1E1
310
E1E1E1E1E1E1E1E1E1E1E1E1E1E1E1E1E2E1E1E1E1E1E1E1E1E1E1E1E1E1E1E1E1E1E1E1E1E1E1E1E1E1E1E1E1E1E1E1E1E1E1E1E1E1E1E1E1E1E1E1E1E1E1E1E1E2E1E1E1E1E1E1E1E1E1E1E1E1E1E1E1E2E1E1E1E1E1E1E1E1E1E1E1E1E1E1E1E1E1E1E1E1E1E1E1E1E1E1E1E1E1E2E1E1E1E1E1E1E1E1E1E1E1E1E1E1E1
310
E1E1E1E1E1E1E1E1E1E1E1E1E1E1E1E1E1E1E1E1E1E1E1E1E1E1E1E1E1E1E1E1E1E1E1E1E1E1E1E1E1E1E1E1E1E1E1E1E1E1E1E1E1E1E1E1E1E1E1E1E1E1E1E1E1E1E1E1E1E1E1E1E1E1E1E2E1E1E1E1E1E1E1E1E1E1E1E1E1E1E1E1E1E1E1E1E1E1E1E1E1E1E1E1E1E1E1E1E1E1E1E1E1E1E1E1E1E1E1E1E1E1E1E1E1E1E1
310
E1E1E1E1E1E1E1E1E1E1E1E1E1E2E2E2E2E2E2E1E1E1E1E1E1E1E1E1E1E1E1E1E1E1E1E1E1E1E1E1E1E1E1E1E1E1E1E1E1E1E1E1E1E1E1E1E1E1E1E1E1E1E1E1E1E1E1E2E1E1E1E1E1E1E1E1E1E1E1E1E1E1E1E2E1E1E1E1E1E1E1E1E1E1E1E1E1E1E1E1E1E1E1E1E1E1E1E1E1E1E1E1E1E2E1E1E1E1E1E1E1E1E1E1E1E1E1
310
E1E1E1E1E1E1E1E1E1E1E1E1E1E1E1E1E1E1E1E1E1E1E1E1E1E1E1E1E1E1E1E1E1E1E1E1E1E1E1E1E1E1E1E1E1E1E1E1E1E1E1E1E1E1E1E1E1E1E1E1E1E1E1E1E1E1E1E1E1E1E1E1E1E1E1E1E1E2E1E1E1E1E1E1E1E1E1E1E1E1E1E1E1E1E1E1E1E1E1E1E1E1E1E1E1E1E1E1E1E1E1E1E1E1E1E1E1E1E1E1E1E1E1E1E1E1E1
310
E1E1E1E1E1E1E1E1E1E1E1E1E1E1E1E1E1E1E1E1E1E1E1E1E1E1E1E1E1E1E1E1E1E1E1E1E1E1E1E1E1E1E1E1E1E1E1E1E1E1E1E1E1E1E1E1E1E1E1E1E1E1E1E1E1E1E1E1E1E2E1E1E1E1E1E1E1E1E1E1E1E1E1E1E1E2E1E1E1E1E1E1E1E1E1E1E1E1E1E1E1E1E1E1E1E1E1E1E1E1E1E1E1E1E1E2E1E1E1E1E1E1E1E1E1E1E1
310
E1E1E1E1E1E1E1E1E1E1E1E1E1E1E1E1E1E1E1E1E1E1E1E1E1E1E1E1E1E1E1E1E1E1E1E1E1E1E1E1E1E1E1E1E1E1E1E1E1E1E1E1E1E1E1E1E1E1E1E1E1E1E1E1E1E1E1E1E1E1E1E1E1E1E1E1E1E1E1E2E1E1E1E1E1E1E1E1E1E1E1E1E1E1E1E1E1E1E1E1E1E1E1E1E1E1E1E1E1E1E1E1E1E1E1E1E1E1E1E1E1E1E1E1E1E1E1
310
E1E1E1E1E1E1E1E1E1E1E1E1E1E1E1E1E1E1E1E1E1E1E1E1E1E1E1E1E1E1E1E1E1E1E1E1E1E1E1E1E1E1E1E1E1E1E1E1E1E1E1E1E1E1E1E1E1E1E1E1E1E1E1E1E1E1E1E1E1E1E1E2E1E1E1E1E1E1E1E1E1E1E1E1E1E1E1E2E1E1E1E1E1E1E1E1E1E1E1E1E1E1E1E1E1E1E1E1E1E1E1E1E1E1E1E1E1E2E1E1E1E1E1E1E1E1E1
310
E1E1E1E1E1E1E1E1E1E1E1E1E1E1E1E1E1E1E1E1E1E1E1E1E1E1E1E1E1E1E1E1E1E1E1E1E1E1E1E1E1E1E1E1E1E1E1E1E1E1E1E1E1E1E1E1E1E1E1E1E1E1E1E1E1E1E1E1E1E1E1E1E1E1E1E1E1E1E1E1E1E2E1E1E1E1E1E1E1E1E1E1E1E1E1E1E1E1E1E1E1E1E1E1E1E1E1E1E1E1E1E1E1E1E1E1E1E1E1E1E1E1E1E1E1E1E1
310
E1E1E1E1E1E1E1E1E1E1E1E1E1E1E1E1E1E1E1E1E1E1E1E1E1E1E1E1E1E1E1E1E1E1E1E1E1E1E1E1E1E1E1E1E1E1E1E1E1E1E1E1E1E1E1E1E1E1E1E1E1E1E1E1E1E1E1E1E1E1E1E1E1E2E1E1E1E1E1E1E1E1E1E1E1E1E1E1E1E2E1E1E1E1E1E1E1E1E1E1E1E1E1E1E1E1E1E1E1E1E1E1E1E1E1E1E1E1E1E2E1E1E1E1E1E1E1
310
E1E1E1E1E1E1E1E1E1E1E1E1E1E1E1E1E1E1E1E1E1E1E1E1E1E1E1E1E1E1E1E1E1E1E1E1E1E1E1E1E1E1E1E1E1E1E1E1E1E1E1E1E1E1E1E1E1E1E1E1E1E1E1E1E1E1E1E1E1E1E1E1E1E1E1E1E1E1E1E1E1E1E1E2E1E1E1E1E1E1E1E1E1E1E1E1E1E1E1E1E1E1E1E1E1E1E1E1E1E1E1E1E1E1E1E1E1E1E1E1E1E1E1E1E1E1E1
310
E1E1E1E1E1E1E1E1E1E1E1E1E1E1E1E1E1E1E1E1E1E1E1E1E1E1E1E1E1E1E1E1E1E1E1E1E1E1E1E1E1E1E1E1E1E1E1E1E1E1E1E1E1E1E1E1E1E1E1E1E1E1E1E1E1E1E1E1E1E1E1E1E1E1E1E2E1E1E1E1E1E1E1E1E1E1E1E1E1E1E1E2E1E1E1E1E1E1E1E1E1E1E1E1E1E1E1E1E1E1E1E1E1E1E1E1E1E1E1E1E1E2E1E1E1E1E1
310
E1E1E1E1E1E1E1E1E1E1E1E1E1E1E1E1E1E1E1E1E1E1E1E1E1E1E1E1E1E1E1E1E1E1E1E1E1E1E1E1E1E1E1E1E1E1E1E1E1E1E1E1E1E1E1E1E1E1E1E1E1E1E1E1E1E1E1E1E1E1E1E1E1E1E1E1E1E1E1E1E1E1E1E1E1E2E1E1E1E1E1E1E1E1E1E1E1E1E1E1E1E1E1E1E1E1E1E1E1E1E1E1E1E1E1E1E1E1E1E1E1E1E1E1E1E1E1
310
E1E1E1E1E1E1E1E1E1E1E1E1E1E1E1E1E1E1E1E1E1E1E1E1E1E1E1E1E1E1E1E1E1E1E1E1E1E1E1E1E1E1E1E1E1E1E1E1E1E1E1E1E1E1E1E1E1E1E1E1E1E1E1E1E1E1E1E1E1E1E1E1E1E1E1E1E1E2E1E1E1E1E1E1E1E1E1E1E1E1E1E1E1E2E1E1E1E1E1E1E1E1E1E1E1E1E1E1E1E1E1E1E1E1E1E1E1E1E1E1E1E1E1E2E1E1E1
310
E1E1E1E1E1E1E1E1E1E1E1E1E1E1E1E1E1E1E1E1E1E1E1E1E1E1E1E1E1E1E1E1E1E1E1E1E1E1E1E1E1E1E1E1E1E1E1E1E1E1E1E1E1E1E1E1E1E1E1E1E1E1E1E1E1E1E1E1E1E1E1E1E1E1E1E1E1E1E1E1E1E1E1E1E1E1E1E2E1E1E1E1E1E1E1E1E1E1E1E1E1E1E1E1E1E1E1E1E1E1E1E1E1E1E1E1E1E1E1E1E1E1E1E1E1E1E1
310
E1E1E1E1E1E1E1E1E1E1E1E1E1E1E1E1E1E1E1E1E1E1E1E1E1E1E1E1E1E1E1E1E1E1E1E1E1E1E1E1E1E1E1E1E1E1E1E1E1E1E1E1E1E1E1E1E1E1E1E1E1E1E1E1E1E1E1E1E1E1E1E1E1E1E1E1E1E1E1E2E1E1E1E1E1E1E1E1E1E1E1E1E1E1E1E2E1E1E1E1E1E1E1E1E1E1E1E1E1E1E1E1E1E1E1E1E1E1E1E1E1E1E1E1E1E2E1
310
E1E1E1E1E1E1E1E1E1E1E1E1E1E1E1E1E1E1E1E1E1E1E1E1E1E1E1E1E1E1E1E1E1E1E1E1E1E1E1E1E1E1E1E1E1E1E1E1E1E1E1E1E1E1E1E1E1E1E1E1E1E1E1E1E1E1E1E1E1E1E1E1E1E1E1E1E1E1E1E1E1E1E1E1E1E1E1E1E1E2E1E1E1E1E1E1E1E1E1E1E1E1E1E1E1E1E1E1E1E1E1E1E1E1E1E1E1E1E1E1E1E1E1E1E1E1E1
310
E1E1E1E1E1E1E1E1E1E1E1E1E1E1E1E1E1E1E1E1E1E1E1E1E1E1E1E1E1E1E1E1E1E1E1E1E1E1E1E1E1E1E1E1E1E1E1E1E1E1E1E1E1E1E1E1E1E1E1E1E1E1E1E1E1E1E1E1E1E1E1E1E1E1E1E1E1E1E1E1E1E2E1E1E1E1E1E1E1E1E1E1E1E1E1E1E1E2E1E1E1E1E1E1E1E1E1E1E1E1E1E1E1E1E1E1E1E1E1E1E1E1E1E1E1E1E1
310
E2E1E1E1E1E1E1E1E1E1E1E1E1E1E1E1E1E1E1E1E1E1E1E1E1E1E1E1E1E1E1E1E1E1E1E1E1E1E1E1E1E1E1E1E1E1E1E1E1E1E1E1E1E1E1E1E1E1E1E1E1E1E1E1E1E1E1E1E1E1E1E1E1E1E1E1E1E1E1E1E1E1E1E1E1E1E1E1E1E1E1E2E1E1E1E1E1E1E1E1E1E1E1E1E1E1E1E1E1E1E1E1E1E1E1E1E1E1E1E1E1E1E1E1E1E1E1
310
E1E1E1E1E1E1E1E1E1E1E1E1E1E1E1E1E1E1E1E1E1E1E1E1E1E1E1E1E1E1E1E1E1E1E1E1E1E1E1E1E1E1E1E1E1E1E1E1E1E1E1E1E1E1E1E1E1E1E1E1E1E1E1E1E1E1E1E1E1E1E1E1E1E1E1E1E1E1E1E1E1E1E1E2E1E1E1E1E1E1E1E1E1E1E1E1E1E1E1E2E1E1E1E1E1E1E1E1E1E1E1E1E1E1E1E1E1E1E1E1E1E1E1E1E1E1E1
310
E1E1E2E1E1E1E1E1E1E1E1E1E1E1E1E1E1E1E1E1E1E1E1E1E1E1E1E1E1E1E1E1E1E1E1E1E1E1E1E1E1E1E1E1E1E1E1E1E1E1E1E1E1E1E1E1E1E1E1E1E1E1E1E1E1E1E1E1E1E1E1E1E1E1E1E1E1E1E1E1E1E1E1E1E1E1E1E1E1E1E1E1E1E2E1E1E1E1E1E1E1E1E1E1E1E1E1E1E1E1E1E1E1E1E1E1E1E1E1E1E1E1E1E1E1E1E1
310
E1E1E1E1E1E1E1E1E1E1E1E1E1E1E1E1E1E1E1E1E1E1E1E1E1E1E1E1E1E1E1E1E1E1E1E1E1E1E1E1E1E1E1E1E1E1E1E1E1E1E1E1E1E1E1E1E1E1E1E1E1E1E1E1E1E1E1E1E1E1E1E1E1E1E1E1E1E1E1E1E1E1E1E1E1E2E1E1E1E1E1E1E1E1E1E1E1E1E1E1E1E2E1E2E2E2E2E2E2E2E2E2E1E1E1E1E1E1E1E1E1E1E1E1E1E1E1
310
E1E1E1E1E2E1E1E2E2E2E2E2E1E1E1E1E1E1E1E1E1E1E1E1E1E1E1E1E1E1E1E1E1E1E1E1E1E1E1E1E1E1E1E1E1E1E1E1E1E1E1E1E1E1E1E1E1E1E1E1E1E1E1E1E1E1E1E1E1E1E1E1E1E1E1E1E1E1E1E1E1E1E1E1E1E1E1E1E1E1E1E1E1E1E1E2E1E1E1E1E1E1E1E1E1E1E1E1E1E1E1E1E1E1E1E1E1E1E1E1E1E1E1E1E1E1E1
310
E1E1E1E1E1E1E1E1E1E1E1E1E1E1E1E1E1E1E1E1E1E1E1E1E1E1E1E1E1E1E1E1E1E1E1E1E1E1E1E1E1E1E1E1E1E1E1E1E1E1E1E1E1E1E1E1E1E1E1E1E1E1E1E1E1E1E1E1E1E1E1E1E1E1E1E1E1E1E1E1E1E1E1E1E1E1E1E2E1E1E1E1E1E1E1E1E1E1E1E1E1E1E1E2E1E2E2E2E2E2E2E2E2E2E1E1E1E1E1E1E1E1E1E1E1E1E1
310
E1E1E1E1E1E1E2E1E1E2E2E2E2E2E1E1E1E1E1E1E1E1E1E1E1E1E1E1E1E1E1E1E1E1E1E1E1E1E1E1E1E1E1E1E1E1E1E1E1E1E1E1E1E1E1E1E1E1E1E1E1E1E1E1E1E1E1E1E1E1E1E1E1E1E1E1E1E1E1E1E1E1E1E1E1E1E1E1E1E1E1E1E1E1E1E1E1E2E1E1E1E1E1E1E1E1E1E1E1E1E1E1E1E1E1E1E1E1E1E1E1E1E1E1E1E1E1
310
E1E1E1E1E1E1E1E1E1E1E1E1E1E1E1E1E1E1E1E1E1E1E1E1E1E1E1E1E1E1E1E1E1E1E1E1E1E1E1E1E1E1E1E1E1E1E1E1E1E1E1E1E1E1E1E1E1E1E1E1E1E1E1E1E1E1E1E1E1E1E1E1E1E1E1E1E1E1E1E1E1E1E1E1E1E1E1E1E1E2E1E1E1E1E1E1E1E1E1E1E1E1E1E1E1E2E1E1E1E1E1E1E1E1E1E1E1E1E1E1E1E1E1E1E1E1E1
310
E1E1E1E1E1E1E1E1E2E1E1E1E1E1E1E1E1E1E1E1E1E1E1E1E1E1E1E1E1E1E1E1E1E1E1E1E1E1E1E1E1E1E1E1E1E1E1E1E1E1E1E1E1E1E1E1E1E1E1E1E1E1E1E1E1E1E1E1E1E1E1E1E1E1E1E1E1E1E1E1E1E1E1E1E1E1E1E1E1E1E1E1E1E1E1E1E1E1E1E2E1E1E1E1E1E1E1E1E1E1E1E1E1E1E1E1E1E1E1E1E1E1E1E1E1E1E1
310
E1E1E1E1E1E1E1E1E1E1E1E1E1E1E1E1E1E1E1E1E1E1E1E1E1E1E1E1E1E1E1E1E1E1E1E1E1E2E2E2E2E2E2E2E2E2E2E2E2E2E2E2E2E2E2E2E2E2E2E2E2E2E2E2E2E2E2E2E2E2E2E2E2E2E2E2E2E2E2E2E2E2E2E2E2E2E2E2E2E2E2E2E1E1E1E1E1E1E1E1E1E1E1E1E1E1E1E2E1E1E1E1E1E1E1E1E1E1E1E1E1E1E1E1E1E1E1
310
E1E1E1E1E1E1E1E1E1E1E2E1E1E1E1E1E1E1E1E1E1E1E1E1E1E1E1E1E1E1E1E1E1E1E1E1E1E1E1E1E1E1E1E1E1E1E1E1E1E1E1E1E1E1E1E1E1E1E1E1E1E1E1E1E1E1E1E1E1E1E1E1E1E1E1E1E1E1E1E1E1E1E1E1E1E1E1E1E1E1E1E1E1E1E1E1E1E1E1E1E1E2E1E1E1E1E1E1E1E1E1E1E1E1E1E1E1E1E1E1E1E1E1E1E1E1E1
310
E1E1E1E1E1E1E1E1E1E1E1E1E1E1E1E1E1E1E1E1E1E1E1E1E1E1E1E1E1E1E1E1E1E1E1E1E1E1E1E1E1E1E1E1E1E1E1E1E1E1E1E1E1E1E1E1E1E1E1E1E1E1E1E1E1E1E1E1E1E1E1E1E1E1E1E1E1E1E1E1E1E1E1E1E1E1E1E1E1E1E1E1E1E2E1E1E1E1E1E1E1E1E1E1E1E1E1E1E1E2E1E1E1E1E1E1E1E1E1E1E1E1E1E1E1E1E1
310
E1E1E1E1E1E1E1E1E1E1E1E1E2E1E1E1E1E1E1E1E1E1E1E1E1E1E1E1E1E1E1E1E1E1E1E1E1E1E1E1E1E1E1E1E1E1E1E1E1E1E1E1E1E1E1E1E1E1E1E1E1E1E1E1E1E1E1E1E1E1E1E1E1E1E1E1E1E1E1E1E1E1E1E1E1E1E1E1E1E1E1E1E1E1E1E1E1E1E1E1E1E1E1E2E1E1E1E1E1E1E1E1E1E1E1E1E1E1E1E1E1E1E1E1E1E1E1
310
E1E1E1E1E1E1E1E1E1E1E1E1E1E1E1E1E1E1E1E1E1E1E1E1E1E1E1E1E1E1E1E1E1E1E1E1E1E1E1E1E1E1E1E1E1E1E1E1E1E1E1E1E1E1E1E1E1E1E1E1E1E1E1E1E1E1E1E1E1E1E1E1E1E1E1E1E1E1E1E1E1E1E1E1E1E1E1E1E1E1E1E1E1E1E1E2E1E1E1E1E1E1E1E1E1E1E1E1E1E1E1E2E1E1E1E1E1E1E1E1E1E1E1E1E1E1E1
310
E1E1E1E1E1E1E1E1E1E1E1E1E1E1E2E1E1E1E1E2E2E2E2E2E2E2E2E2E2E2E2E2E2E2E2E2E2E2E2E2E2E2E2E2E2E2E1E2E2E2E2E2E1E2E1E1E1E1E1E1E1E1E1E1E1E1E1E1E1E1E1E1E1E1E1E1E1E1E1E1E1E1E1E1E1E1E1E1E1E1E1E1E1E1E1E1E1E1E1E1E1E1E1E1E1E2E1E1E1E1E1E1E1E1E1E1E1E1E1E1E1E1E1E1E1E1E1
310
E1E1E1E1E1E1E1E1E1E1E1E1E1E1E1E1E1E1E1E1E1E1E1E1E1E1E1E1E1E1E1E1E1E1E1E1E1E1E1E1E1E1E1E1E1E1E1E1E1E1E1E1E1E1E1E1E1E1E1E1E1E1E1E1E1E1E1E1E1E1E1E1E1E1E1E1E1E1E1E1E1E1E1E1E1E1E1E1E1E1E1E1E1E1E1E1E1E2E1E1E1E1E1E1E1E1E1E1E1E1E1E1E1E2E1E1E1E1E1E1E1E1E1E1E1E1E1
310
E1E1E1E1E1E1E1E1E1E1E1E1E1E1E1E1E2E1E1E1E1E2E2E2E2E2E2E2E2E2E2E1E2E2E1E2E2E1E2E2E1E2E2E1E2E2E2E2E2E2E2E2E2E2E2E1E1E1E1E1E1E1E1E1E1E1E1E1E1E1E1E1E1E1E1E1E1E1E1E1E1E1E1E1E1E1E1E1E1E1E1E1E1E1E1E1E1E1E1E1E1E1E1E1E1E1E1E2E1E1E1E1E1E1E1E1E1E1E1E1E1E1E1E1E1E1E1
310
E1E1E1E1E1E1E1E1E1E1E1E1E1E1E1E1E1E1E1E1E1E1E1E1E1E1E1E1E1E1E1E1E1E1E1E1E1E1E1E1E1E1E1E1E1E1E1E1E1E1E1E1E1E1E1E1E1E1E1E1E1E1E1E1E1E1E1E1E1E1E1E1E1E1E1E1E1E1E1E1E1E1E1E1E1E1E1E1E1E1E1E1E1E1E1E1E1E1E1E2E1E1E1E1E1E1E1E1E1E1E1E1E1E1E1E2E1E1E1E1E1E1E1E1E1E1E1
310
E1E1E1E1E1E1E1E1E1E1E1E1E1E1E1E1E1E1E2E1E1E1E1E2E2E2E2E2E2E1E2E2E2E2E2E2E2E2E2E1E2E2E2E2E2E2E2E2E2E2E2E2E2E2E2E2E1E2E1E1E1E1E1E1E1E1E1E1E1E1E1E1E1E1E1E1E1E1E1E1E1E1E1E1E1E1E1E1E1E1E1E1E1E1E1E1E1E1E1E1E1E1E1E1E1E1E1E1E1E2E1E1E1E1E1E1E1E1E1E1E1E1E1E1E1E1E1
310
E1E1E1E1E1E1E1E1E1E1E1E1E1E1E1E1E1E1E1E1E1E1E1E1E1E1E1E1E1E1E1E1E1E1E1E1E1E1E1E1E1E1E1E1E1E1E1E1E1E1E1E1E1E1E1E1E1E1E1E1E1E1E1E1E1E1E1E1E1E1E1E1E1E1E1E1E1E1E1E1E1E1E1E1E1E1E1E1E1E1E1E1E1E1E1E1E1E1E1E1E1E2E1E1E1E1E1E1E1E1E1E1E1E1E1E1E1E2E1E1E1E1E1E1E1E1E1
310
E1E1E1E1E1E1E1E1E1E1E1E1E1E1E1E1E1E1E1E1E2E1E1E1E1E1E1E1E1E1E1E1E1E1E1E1E1E1E1E1E1E1E1E1E1E1E1E1E1E1E1E1E1E1E1E1E1E1E1E1E1E1E1E1E1E1E1E1E1E1E1E1E1E1E1E1E1E1E1E1E1E1E1E1E1E1E1E1E1E1E1E1E1E1E1E1E1E1E1E1E1E1E1E1E1E1E1E1E1E1E1E2E1E1E1E1E1E1E1E1E1E1E1E1E1E1E1
310
E1E1E1E1E1E1E1E1E1E1E1E1E1E1E1E1E1E1E1E1E1E1E1E1E1E1E1E1E1E1E1E1E1E1E1E1E1E1E1E1E1E1E1E1E1E1E1E1E1E1E1E1E1E1E1E1E1E1E1E1E1E1E1E1E1E1E1E1E1E1E1E1E1E1E1E1E1E1E1E1E1E1E1E1E1E1E1E1E1E1E1E1E1E1E1E1E1E1E1E1E1E1E1E2E1E1E1E1E1E1E1E1E1E1E1E1E1E1E1E2E1E1E1E1E1E1E1
310
E1E1E1E1E1E1E1E1E1E1E1E1E1E1E1E1E1E1E1E1E1E1E2E1E1E1E1E1E1E1E1E1E1E1E1E1E1E1E1E1E1E1E1E1E1E1E1E1E1E1E1E1E1E1E1E1E1E1E1E1E1E1E1E1E1E1E1E1E1E1E1E1E1E1E1E1E1E1E1E1E1E1E1E1E1E1E1E1E1E1E1E1E1E1E1E1E1E1E1E1E1E1E1E1E1E1E1E1E1E1E1E1E1E2E1E1E1E1E1E1E1E1E1E1E1E1E1
310
E1E1E1E1E1E1E1E1E1E1E1E1E1E1E1E1E1E1E1E1E1E1E1E1E1E1E1E1E1E1E1E1E1E1E1E1E1E1E1E1E1E1E1E1E1E1E1E1E1E1E1E1E1E1E1E1E1E1E1E1E1E1E1E1E1E1E1E1E1E1E1E1E1E1E1E1E1E1E1E1E1E1E1E1E1E1E1E1E1E1E1E1E1E1E1E1E1E1E1E1E1E1E1E1E1E2E1E1E1E1E1E1E1E1E1E1E1E1E1E1E1E2E1E1E1E1E1
310
E1E1E1E1E1E1E1E1E1E1E1E1E1E1E1E1E1E1E1E1E1E1E1E1E2E1E1E1E1E1E1E1E1E1E1E1E1E1E1E1E1E1E1E1E1E1E1E1E1E1E1E1E1E1E1E1E1E1E1E1E1E1E1E1E1E1E1E1E1E1E1E1E1E1E1E1E1E1E1E1E1E1E1E1E1E1E1E1E1E1E1E1E1E1E1E1E1E1E1E1E1E1E1E1E1E1E1E1E1E1E1E1E1E1E1E2E1E1E1E1E1E1E1E1E1E1E1
310
E1E1E1E1E1E1E1E1E1E1E1E1E1E1E1E1E1E1E1E1E1E1E1E1E1E1E1E1E1E1E1E1E1E1E1E1E1E1E1E1E1E1E1E1E1E1E1E1E1E1E1E1E1E2E2E2E2E2E2E2E2E2E2E2E2E2E2E2E2E2E2E2E2E2E2E2E2E2E2E2E2E2E2E2E2E2E2E2E2E2E2E2E2E2E2E2E2E2E2E2E2E2E2E2E2E2E2E2E1E1E1E1E1E1E1E1E1E1E1E1E1E1E1E2E1E1E1
310
E1E1E1E1E1E1E1E1E1E1E1E1E1E1E1E1E1E1E1E1E1E1E1E1E1E1E2E1E1E1E1E1E1E1E1E1E1E1E1E1E1E1E1E1E1E1E1E1E1E1E1E1E1E1E1E1E1E1E1E1E1E1E1E1E1E1E1E1E1E1E1E1E1E1E1E1E1E1E1E1E1E1E1E1E1E1E1E1E1E1E1E1E1E1E1E1E1E1E1E1E1E1E1E1E1E1E1E1E1E1E1E1E1E1E1E1E1E2E1E1E1E1E1E1E1E1E1
310
E1E1E1E1E1E1E1E1E1E1E1E1E1E1E1E1E1E1E1E1E1E1E1E1E1E1E1E1E1E1E1E1E1E1E1E1E1E1E1E1E1E1E1E1E1E1E1E1E1E1E1E1E1E1E1E1E1E1E1E1E1E1E1E1E1E1E1E1E1E1E1E1E1E1E1E1E1E1E1E1E1E1E1E1E1E1E1E1E1E1E1E1E1E1E1E1E1E1E1E1E1E1E1E1E1E1E1E1E1E2E1E1E1E1E1E1E1E1E1E1E1E1E1E1E1E2E1
310
E1E1E1E1E1E1E1E1E1E1E1E1E1E1E1E1E1E1E1E1E1E1E1E1E1E1E1E1E2E1E1E1E1E1E1E1E1E1E1E1E1E1E1E1E1E1E1E1E1E1E1E1E1E1E1E1E1E1E1E1E1E1E1E1E1E1E1E1E1E1E1E1E1E1E1E1E1E1E1E1E1E1E1E1E1E1E1E1E1E1E1E1E1E1E1E1E1E1E1E1E1E1E1E1E1E1E1E1E1E1E1E1E1E1E1E1E1E1E1E2E1E1E1E1E1E1E1
310
E1E1E1E1E1E1E1E1E1E1E1E1E1E1E1E1E1E1E1E1E1E1E1E1E1E1E1E1E1E1E1E1E1E1E1E1E1E1E1E1E1E1E1E1E1E1E1E1E1E1E1E1E1E1E1E1E1E1E1E1E1E1E1E1E1E1E1E1E1E1E1E1E1E1E1E1E1E1E1E1E1E1E1E1E1E1E1E1E1E1E1E1E1E1E1E1E1E1E1E1E1E1E1E1E1E1E1E1E1E1E1E2E1E1E1E1E1E1E1E1E1E1E1E1E1E1E1
310
E2E1E1E1E1E1E1E1E1E1E1E1E1E1E1E1E1E1E1E1E1E1E1E1E1E1E1E1E1E1E2E1E1E1E1E1E1E1E1E1E1E1E1E1E1E1E1E1E1E1E1E1E1E1E1E1E1E1E1E1E1E1E1E1E1E1E1E1E1E1E1E1E1E1E1E1E1E1E1E1E1E1E1E1E1E1E1E1E1E1E1E1E1E1E1E1E1E1E1E1E1E1E1E1E1E1E1E1E1E1E1E1E1E1E1E1E1E1E1E1E1E2E1E1E1E1E1
310
E1E1E1E1E1E1E1E1E1E1E1E1E1E1E1E1E1E1E1E1E1E1E1E1E1E1E1E1E1E1E1E1E1E1E1E1E1E1E1E1E1E1E1E1E1E1E1E1E1E1E1E1E1E1E1E1E1E1E1E1E1E1E1E1E1E1E1E1E1E1E1E1E1E1E1E1E1E1E1E1E1E1E1E1E1E1E1E1E1E1E1E1E1E1E1E1E1E1E1E1E1E1E1E1E1E1E1E1E1E1E1E1E1E2E1E1E1E1E1E1E1E1E1E1E1E1E1
310
E1E1E2E1E1E1E1E1E1E1E1E1E1E1E1E1E1E1E1E1E1E1E1E1E1E1E1E1E1E1E1E1E2E1E1E1E1E1E1E1E1E1E1E1E1E1E1E1E1E1E1E1E1E1E1E1E1E1E1E1E1E1E1E1E1E1E1E1E1E1E1E1E1E1E1E1E1E1E1E1E1E1E1E1E1E1E1E1E1E1E1E1E1E1E1E1E1E1E1E1E1E1E1E1E1E1E1E1E1E1E1E1E1E1E1E1E1E1E1E1E1E1E1E2E1E1E1
310
E1E1E1E1E1E1E1E1E1E1E1E1E1E1E1E1E1E1E1E1E1E1E1E1E1E1E1E1E1E1E1E1E1E1E1E1E1E1E1E1E1E1E1E1E1E1E1E1E1E1E1E1E1E1E1E1E1E1E1E1E1E1E1E1E1E1E1E1E1E1E1E1E1E1E1E1E1E1E1E1E1E1E1E1E1E1E1E1E1E1E1E1E1E1E1E1E1E1E1E1E1E1E1E1E1E1E1E1E1E1E1E1E1E1E1E2E1E1E1E1E1E1E1E1E1E1E1
310
E1E1E1E1E2E1E1E1E1E1E1E1E1E1E1E1E1E1E1E1E1E1E1E1E1E1E1E1E1E1E1E1E1E1E2E1E1E1E1E1E1E1E1E1E1E1E1E1E1E1E1E1E1E1E1E1E1E1E1E1E1E1E1E1E1E1E1E1E1E1E1E1E1E1E1E1E1E1E1E1E1E1E1E1E1E1E1E1E1E1E1E1E1E1E1E1E1E1E1E1E1E1E1E1E1E1E1E1E1E1E1E1E1E1E1E1E1E1E1E1E1E1E1E1E1E2E1
310
E1E1E1E1E1E1E1E1E1E1E1E1E1E1E1E1E1E1E1E1E1E1E1E1E1E1E1E1E1E1E1E1E1E1E1E1E1E1E1E1E1E1E1E1E1E1E1E1E1E1E1E1E1E1E1E1E1E1E1E1E1E1E1E1E1E1E1E1E1E1E1E1E1E1E1E1E1E1E1E1E1E1E1E1E1E1E1E1E1E1E1E1E1E1E1E1E1E1E1E1E1E1E1E1E1E1E1E1E1E1E1E1E1E1E1E1E1E2E1E1E1E1E1E1E1E1E1
310
E1E1E1E1E1E1E2E1E1E1E1E1E1E1E1E1E1E1E1E1E1E1E1E1E1E1E1E1E1E1E1E1E1E1E1E1E2E1E1E1E1E1E1E1E1E1E1E1E1E1E1E1E1E1E1E1E1E1E1E1E1E1E1E1E1E1E1E1E1E1E1E1E1E1E1E1E1E1E1E1E1E1E1E1E1E1E1E1E1E1E1E1E1E1E1E1E1E1E1E1E1E1E1E1E1E1E1E1E1E1E1E1E1E1E1E1E1E1E1E1E1E1E1E1E1E1E1
310
E2E1E1E1E1E1E1E1E1E1E1E1E1E1E1E1E1E1E1E1E1E1E1E1E1E1E1E1E1E1E1E1E1E1E1E1E1E1E1E1E1E1E1E1E1E1E1E1E1E1E1E1E1E1E1E1E1E1E1E1E1E1E1E1E1E1E1E1E1E1E1E1E1E1E1E1E1E1E1E1E1E1E1E1E1E1E1E1E1E1E1E1E1E1E1E1E1E1E1E1E1E1E1E1E1E1E1E1E1E1E1E1E1E1E1E1E1E1E1E2E1E1E1E1E1E1E1
310
E1E1E1E1E1E1E1E1E2E1E1E1E1E1E1E1E1E1E1E1E1E1E1E1E1E1E1E1E1E1E1E1E1E1E1E1E1E1E2E1E1E1E1E1E1E1E1E1E1E1E1E1E1E1E1E1E1E1E1E1E1E1E1E1E1E1E1E1E1E1E1E1E1E1E1E1E1E1E1E1E1E1E1E1E1E1E1E1E1E1E1E1E1E1E1E1E1E1E1E1E1E1E1E1E1E1E1E1E1E1E1E1E1E1E1E1E1E1E1E1E1E1E1E1E1E1E1
310
E1E1E2E1E1E1E1E1E1E1E1E1E1E1E1E1E1E1E1E1E1E1E1E1E1E1E1E1E1E1E1E1E1E1E1E1E1E1E1E1E1E1E1E1E1E1E1E1E1E1E1E1E1E1E1E1E1E1E1E1E1E1E1E1E1E1E1E1E1E1E1E1E1E1E1E1E1E1E1E1E1E1E1E1E1E1E1E1E1E1E1E1E1E1E1E1E1E1E1E1E1E1E1E1E1E1E1E1E1E1E1E1E1E1E1E1E1E1E1E1E1E2E1E1E1E1E1
310
E1E1E1E1E1E1E1E1E1E1E2E1E1E1E1E1E1E1E1E1E1E1E1E1E1E1E1E1E1E1E1E1E1E1E1E1E1E1E1E1E2E1E1E1E1E1E1E1E1E1E1E1E1E1E1E1E1E1E1E1E1E1E1E1E1E1E1E1E1E1E1E1E1E1E1E1E1E1E1E1E1E1E1E1E1E1E1E1E1E1E1E1E1E1E1E1E1E1E1E1E1E1E1E1E1E1E1E1E1E1E1E1E1E1E1E1E1E1E1E1E1E1E1E1E1E1E1
310
E1E1E1E1E2E1E1E1E1E1E1E1E1E1E1E1E1E1E1E1E1E1E1E1E1E1E1E1E1E1E1E1E1E1E1E1E1E1E1E1E1E1E1E1E1E1E1E1E1E1E1E1E1E1E1E1E1E1E1E1E1E1E1E1E1E1E1E1E1E1E1E1E1E1E1E1E1E1E1E1E1E1E1E1E1E1E1E1E1E1E1E1E1E1E1E1E1E1E1E1E1E1E1E1E1E1E1E1E1E1E1E1E1E1E1E1E1E1E1E1E1E1E1E2E1E1E1
310
E1E1E1E1E1E1E1E1E1E1E1E1E2E1E1E1E1E1E1E1E1E1E1E1E1E1E1E1E1E1E1E1E1E1E1E1E1E1E1E1E1E1E2E1E1E1E1E1E1E1E1E1E1E1E1E1E1E1E1E1E1E1E1E1E1E1E1E1E1E1E1E1E1E1E1E1E1E1E1E1E1E1E1E1E1E1E1E1E1E1E1E1E1E1E1E1E1E1E1E1E1E1E1E1E1E1E1E1E1E1E1E1E1E1E1E1E1E1E1E1E1E1E1E1E1E1E1
310
E1E1E1E1E1E1E2E1E1E1E1E1E1E1E1E1E1E1E1E1E1E1E1E1E1E1E1E1E1E1E1E1E1E1E1E1E1E1E1E1E1E1E1E1E1E1E1E1E1E1E1E1E1E1E1E1E1E1E1E1E1E1E1E1E1E1E1E1E1E1E1E1E1E1E1E1E1E1E1E1E1E1E1E1E1E1E1E1E1E1E1E1E1E1E1E1E1E1E1E1E1E1E1E1E1E1E1E1E1E1E1E1E1E1E1E1E1E1E1E1E1E1E1E1E1E2E1
310
E1E1E1E1E1E1E1E1E1E1E1E1E1E1E2E1E1E1E1E1E1E1E1E1E1E1E1E1E1E1E1E1E1E1E1E1E1E1E1E1E1E1E1E1E2E1E1E1E1E1E1E1E1E1E1E1E1E1E1E1E1E1E1E1E1E1E1E1E1E1E1E1E1E1E1E1E1E1E1E1E1E1E1E1E1E1E1E1E1E1E1E1E1E1E1E1E1E1E1E1E1E1E1E1E1E1E1E1E1E1E1E1E1E1E1E1E1E1E1E1E1E1E1E1E1E1E1
310
E1E1E1E1E1E1E1E1E2E1E1E1E1E1E1E1E1E1E1E1E1E1E1E1E1E1E1E1E1E1E1E1E1E1E1E1E1E1E1E1E1E1E1E1E1E1E1E1E1E1E1E1E1E1E1E1E1E1E1E1E1E1E1E1E1E1E1E1E1E1E1E1E1E1E1E1E1E1E1E1E1E1E1E1E1E1E1E1E1E1E1E1E1E1E1E1E1E1E1E1E1E1E1E1E1E1E1E1E1E1E1E1E1E1E1E1E1E1E1E1E1E1E1E1E1E1E1
310
E2E1E1E1E1E1E1E1E1E1E1E1E1E1E1E1E2E1E1E1E1E1E1E1E1E1E1E1E1E1E1E1E1E1E1E1E1E1E1E1E1E1E1E1E1E1E2E1E1E1E1E1E1E1E1E1E1E1E1E1E1E1E1E1E1E1E1E1E1E1E1E1E1E1E1E1E1E1E1E1E1E1E1E1E1E1E1E1E1E1E1E1E1E1E1E1E1E1E1E1E1E1E1E1E1E1E1E1E1E1E1E1E1E1E1E1E1E1E1E1E1E1E1E1E1E1E1
310
E1E1E1E1E1E1E1E1E1E1E2E1E1E1E1E1E1E1E1E1E1E1E1E1E1E1E1E1E1E1E1E1E1E1E1E1E1E1E1E1E1E1E1E1E1E1E1E1E1E1E1E1E1E1E1E1E1E1E1E1E1E1E1E1E1E1E1E1E1E1E1E1E1E1E1E1E1E1E1E1E1E1E1E1E1E1E1E1E1E1E1E1E1E1E1E1E1E1E1E1E1E1E1E1E1E1E1E1E1E1E1E1E1E1E1E1E1E1E1E1E1E1E1E1E1E1E1
310
E1E1E2E1E1E1E1E1E1E1E1E1E1E1E1E1E1E1E2E1E1E1E1E1E1E1E1E1E1E1E1E1E1E1E1E1E1E1E1E1E1E1E1E1E1E1E1E1E2E1E1E1E1E1E1E1E1E1E1E1E1E1E1E1E1E1E1E1E1E1E1E1E1E1E1E1E1E1E1E1E1E1E1E1E1E1E1E1E1E1E1E1E1E1E1E1E1E1E1E1E1E1E1E1E1E1E1E1E1E1E1E1E1E1E1E1E1E1E1E1E1E1E1E1E1E1E1
310
E1E1E1E1E1E1E1E1E1E1E1E1E2E1E1E1E1E1E1E1E1E1E1E1E1E1E1E1E1E1E1E1E1E1E1E1E1E1E1E1E1E1E1E1E1E1E1E1E1E1E1E1E1E1E1E1E1E1E1E1E1E1E1E1E1E1E1E1E1E1E1E1E1E1E1E1E1E1E1E1E1E1E1E1E1E1E1E1E1E1E1E1E1E1E1E1E1E1E1E1E1E1E1E1E1E1E1E1E1E1E1E1E1E1E1E1E1E1E1E1E1E1E1E1E1E1E1
310
E1E1E1E1E2E1E1E1E1E1E1E1E1E1E1E1E1E1E1E1E2E1E1E1E1E1E1E1E1E1E1E1E1E1E1E1E1E1E1E1E1E1E1E1E1E1E1E1E1E1E2E1E1E1E1E1E1E1E1E1E1E1E1E1E1E1E1E1E1E1E1E1E1E1E1E1E1E1E1E1E1E1E1E1E1E1E1E1E1E1E1E1E1E1E1E1E1E1E1E1E1E1E1E1E1E1E1E1E1E1E1E1E1E1E1E1E1E1E1E1E1E1E1E1E1E1E1
310
E1E1E1E1E1E1E1E1E1E1E1E1E1E1E2E1E1E1E1E1E1E1E1E1E1E1E1E1E1E1E1E1E1E1E1E1E1E1E1E1E1E1E1E1E1E1E1E1E1E1E1E1E1E1E1E1E1E1E1E1E1E1E1E1E1E1E1E1E1E1E1E1E1E1E1E1E1E1E1E1E1E1E1E1E1E1E1E1E1E1E1E1E1E1E1E1E1E1E1E1E1E1E1E1E1E1E1E1E1E1E1E1E1E1E1E1E1E1E1E1E1E1E1E1E1E1E1
310
E1E1E1E1E1E1E2E1E1E1E1E1E1E1E1E1E1E1E1E1E1E1E2E1E1E1E1E1E1E1E1E1E1E1E1E1E1E1E1E1E1E1E1E1E1E1E1E1E1E1E1E1E2E1E1E1E1E1E1E1E1E1E1E1E1E1E1E1E1E1E1E1E1E1E1E1E1E1E1E1E1E1E1E1E1E1E1E1E1E1E1E1E1E1E1E2E2E2E2E2E2E2E2E2E2E2E1E1E1E1E1E1E1E1E1E1E1E1E1E1E1E1E1E1E1E1E1
310
E1E1E1E1E1E1E1E1E1E1E1E1E1E1E1E1E2E1E1E1E1E1E1E1E1E1E1E1E1E1E1E1E1E1E1E1E1E1E1E1E1E1E1E1E1E1E1E1E1E1E1E1E1E1E1E1E1E1E1E1E1E1E1E1E1E1E1E1E1E1E1E1E1E1E1E1E1E1E1E1E1E1E1E1E1E1E1E1E1E1E1E1E1E1E1E1E1E1E1E1E1E1E1E1E1E1E1E1E1E1E1E1E1E1E1E1E1E1E1E1E1E1E1E1E1E1E1
310
E1E1E1E1E1E1E1E1E2E1E1E1E1E1E1E1E1E1E1E1E1E1E1E1E2E1E1E1E1E1E1E1E1E1E1E1E1E1E1E1E1E1E1E1E1E1E1E1E1E1E1E1E1E1E2E1E1E1E1E1E1E1E1E1E1E1E1E1E1E1E1E1E1E1E1E1E1E1E1E1E1E1E1E1E1E1E1E1E1E1E1E1E1E1E1E1E1E2E2E2E2E2E2E2E2E2E2E2E1E1E1E1E1E1E1E1E1E1E1E1E1E1E1E1E1E1E1
310
E1E1E1E1E1E1E1E1E1E1E1E1E1E1E1E1E1E1E2E1E1E1E1E1E1E1E1E1E1E1E1E1E1E1E1E1E1E1E1E1E1E1E1E1E1E1E1E1E1E1E1E1E1E1E1E1E1E1E1E1E1E1E1E1E1E1E1E1E1E1E1E1E1E1E1E1E1E1E1E1E1E1E1E1E1E1E1E1E1E1E1E1E1E1E1E1E1E1E1E1E1E1E1E1E1E1E1E1E1E1E1E1E1E1E1E1E1E1E1E1E1E1E1E1E1E1E1
310
E1E1E1E1E1E1E1E1E1E1E2E1E1E1E1E1E1E1E1E1E1E1E1E1E1E1E2E1E1E1E1E1E1E1E1E1E1E1E1E1E1E1E1E1E1E1E1E1E1E1E1E1E1E1E1E1E2E1E1E1E1E1E1E1E1E1E1E1E1E1E1E1E1E1E1E1E1E1E1E1E1E1E1E1E1E1E1E1E1E1E1E1E1E1E1E1E1E1E1E2E2E2E2E2E2E2E2E2E2E2E1E1E1E1E1E1E1E1E1E1E1E1E1E1E1E1E1
310
E1E1E1E1E1E1E1E1E1E1E1E1E1E1E1E1E1E1E1E1E2E1E1E1E1E1E1E1E1E1E1E1E1E1E1E1E1E1E1E1E1E1E1E1E1E1E1E1E1E1E1E1E1E1E1E1E1E1E1E1E1E1E1E1E1E1E1E1E1E1E1E1E1E1E1E1E1E1E1E1E1E1E1E1E1E1E1E1E1E1E1E1E1E1E1E1E1E1E1E1E1E1E1E1E1E1E1E1E1E1E1E1E1E1E1E1E1E1E1E1E1E1E1E1E1E1E1
310
E1E1E1E1E1E1E1E1E1E1E1E1E2E1E1E1E1E1E1E1E1E1E1E1E1E1E1E1E2E1E1E1E1E1E1E1E1E1E1E1E1E1E1E1E1E1E1E1E1E1E1E1E1E1E1E1E1E1E2E1E1E1E1E1E1E1E1E1E1E1E1E1E1E1E1E1E1E1E1E1E1E1E1E1E1E1E1E1E1E1E1E1E1E1E1E1E1E1E1E1E1E2E1E1E1E1E1E1E1E1E2E2E1E1E1E1E1E1E1E1E1E1E1E1E1E1E1
310
E1E1E1E1E1E1E1E1E1E1E1E1E1E1E1E1E1E1E1E1E1E1E2E1E1E1E1E1E1E1E1E1E1E1E1E1E1E1E1E1E1E1E1E1E1E1E1E1E1E1E1E1E1E1E1E1E1E1E1E1E1E1E1E1E1E1E1E1E1E1E1E1E1E1E1E1E1E1E1E1E1E1E1E1E1E1E1E2E2E2E2E2E2E2E2E2E2E2E2E2E2E2E2E2E2E2E2E1E1E1E1E1E1E1E1E1E1E1E1E1E1E1E1E1E1E1E1
310
E1E1E1E1E1E1E1E1E1E1E1E1E1E1E2E1E1E1E1E1E1E1E1E1E1E1E1E1E1E1E2E1E1E1E1E1E1E1E1E1E1E1E1E1E1E1E1E1E1E1E1E1E1E1E1E1E1E1E1E1E2E1E1E1E1E1E1E1E1E1E1E1E1E1E1E1E1E1E1E1E1E1E1E1E1E1E1E1E1E1E1E1E1E1E1E1E1E1E1E1E1E1E1E2E1E1E1E1E1E1E1E1E2E2E1E1E1E1E1E1E1E1E1E1E1E1E1
310
E1E1E1E1E1E1E1E1E1E1E1E1E1E1E1E1E1E1E1E1E1E1E1E1E2E1E1E1E1E1E1E1E1E1E1E1E1E1E1E1E1E1E1E1E1E1E1E1E1E1E1E1E1E1E1E1E1E1E1E1E1E1E1E1E1E1E1E1E1E1E1E1E1E1E1E1E1E1E1E1E1E1E1E1E1E1E1E1E1E1E1E1E1E1E1E1E1E1E1E1E1E1E2E2E2E2E2E2E2E1E1E1E1E1E1E1E1E1E1E1E1E1E1E1E1E1E1
310
E1E1E1E1E1E1E1E1E1E1E1E1E1E1E1E1E2E1E1E1E1E1E1E1E1E1E1E1E1E1E1E1E2E1E1E1E1E1E1E1E1E1E1E1E1E1E1E1E1E1E1E1E1E1E1E1E1E1E1E1E1E1E2E1E1E1E1E1E1E1E1E1E1E1E1E1E1E1E1E1E1E1E1E1E1E1E1E1E1E1E1E1E1E1E1E1E1E1E1E1E1E1E1E1E2E2E1E1E1E1E1E1E1E1E2E2E1E1E1E1E1E1E1E1E1E1E1
310
E1E1E1E1E1E1E1E1E1E1E1E1E1E1E1E1E1E1E1E1E1E1E1E1E1E1E2E1E1E1E1E1E1E1E1E1E1E1E1E1E1E1E1E1E1E1E1E1E1E1E1E1E1E1E1E1E1E1E1E1E1E1E1E1E1E1E1E1E1E1E1E1E1E1E1E1E1E1E1E1E1E1E1E1E1E1E1E1E1E1E1E1E1E1E1E1E1E1E1E1E1E1E1E1E2E2E2E2E2E2E2E1E1E1E1E1E1E1E1E1E1E1E1E1E1E1E1
310
E1E1E1E1E1E1E1E1E1E1E1E1E1E1E1E1E1E1E2E1E1E1E1E1E1E1E1E1E1E1E1E1E1E1E2E1E1E1E1E1E1E1E1E1E1E1E1E1E1E1E1E1E1E1E1E1E1E1E1E1E1E1E1E1E2E1E1E1E1E1E1E1E1E1E1E1E1E1E1E1E1E1E1E1E1E1E1E1E1E1E1E1E1E1E1E1E1E1E1E1E1E1E1E1E1E1E2E2E1E1E1E1E1E1E1E1E2E2E1E1E1E1E1E1E1E1E1
310
E1E1E1E1E1E1E1E1E1E1E1E1E1E1E1E1E1E1E1E1E1E1E1E1E1E1E1E1E2E1E1E1E1E1E1E1E1E1E1E1E1E1E1E1E1E1E1E1E1E1E1E1E1E1E1E1E1E1E1E1E1E1E1E1E1E1E1E1E1E1E1E1E1E1E1E1E1E1E1E1E1E1E1E1E1E1E1E1E1E1E1E1E1E2E2E2E2E2E2E2E2E2E2E2E2E2E2E2E2E2E2E2E2E1E1E1E1E1E1E1E1E1E1E1E1E1E1
310
E1E1E1E1E1E1E1E1E1E1E1E1E1E1E1E1E1E1E1E1E2E1E1E1E1E1E1E1E1E1E1E1E1E1E1E1E2E1E1E1E1E1E1E1E1E1E1E1E1E1E1E1E1E1E1E1E1E1E1E1E1E1E1E1E1E1E2E1E1E1E1E1E1E1E1E1E1E1E1E1E1E1E1E1E1E1E1E1E1E1E1E1E1E1E1E1E1E1E1E1E1E1E1E1E1E1E1E1E1E2E2E2E2E2E2E2E2E2E2E2E1E1E1E1E1E1E1
310
E1E1E1E1E1E1E1E1E1E1E1E1E1E1E1E1E1E1E1E1E1E1E1E1E1E1E1E1E1E1E2E1E1E1E1E1E1E1E1E1E1E1E1E1E1E1E1E1E1E1E1E1E1E1E1E1E1E1E1E1E1E1E1E1E1E1E1E1E1E1E1E1E1E1E1E1E1E1E1E1E1E1E1E1E1E1E1E1E1E1E1E1E1E1E1E1E1E1E1E1E1E1E1E1E1E1E1E1E1E1E1E1E1E1E1E1E1E1E1E1E1E1E1E1E1E1E1
310
E1E1E1E1E1E1E1E1E1E1E1E1E1E1E1E1E1E1E1E1E1E1E2E1E1E1E1E1E1E1E1E1E1E1E1E1E1E1E2E1E1E1E1E1E1E1E1E1E1E1E1E1E1E1E1E1E1E1E1E1E1E1E1E1E1E1E1E1E2E1E1E1E1E1E1E1E1E1E1E1E1E1E1E1E1E1E1E1E1E1E1E1E1E1E1E1E1E1E1E1E1E1E1E1E1E1E1E1E1E1E1E1E1E1E1E1E1E1E1E1E1E1E1E1E1E1E1
310
E1E1E1E1E1E1E1E1E1E1E1E1E1E1E1E1E1E1E1E1E1E1E1E1E1E1E1E1E1E1E1E1E2E1E1E1E1E1E1E1E1E1E1E1E1E1E1E1E1E1E1E1E1E1E1E1E1E1E1E1E1E1E1E1E1E1E1E1E1E1E1E1E1E1E1E1E1E1E1E1E1E1E1E1E1E1E1E1E1E1E1E1E1E1E1E1E1E1E1E1E1E1E1E1E1E1E1E1E1E1E1E1E1E1E1E1E1E1E1E1E1E1E1E1E1E1E1
310
E1E1E1E1E1E1E1E1E1E1E1E1E1E1E1E1E1E1E1E1E1E1E1E1E2E1E1E1E1E1E1E1E1E1E1E1E1E1E1E1E2E1E1E1E1E1E1E1E1E1E1E1E1E1E1E1E1E1E1E1E1E1E1E1E1E1E1E1E1E1E2E1E1E1E1E1E1E1E1E1E1E1E1E1E1E1E1E1E1E1E1E1E1E1E1E1E1E1E1E1E1E1E1E1E1E1E1E1E1E1E1E1E1E1E1E1E1E1E1E1E1E1E1E1E1E1E1
310
E1E1E1E1E1E1E1E1E1E1E1E1E1E1E1E1E1E1E1E1E1E1E1E1E1E1E1E1E1E1E1E1E1E1E2E1E1E1E1E1E1E1E1E1E1E1E1E1E1E1E1E1E1E1E1E1E1E1E1E1E1E1E1E1E1E1E1E1E1E1E1E1E1E1E1E1E1E1E1E1E1E1E1E1E1E1E1E1E1E1E1E1E1E1E1E1E1E1E1E1E1E1E1E1E1E1E1E1E1E1E1E1E1E1E1E1E1E1E1E1E1E1E1E1E1E1E1
310
E1E1E1E1E1E1E1E1E1E1E1E1E1E1E1E1E1E1E1E1E1E1E1E1E1E1E2E1E1E1E1E1E1E1E1E1E1E1E1E1E1E1E2E1E1E1E1E1E1E1E1E1E1E1E1E1E1E1E1E1E1E1E1E1E1E1E1E1E1E1E1E1E2E1E1E1E1E1E1E1E1E1E1E1E1E1E1E1E1E1E1E1E1E1E1E1E1E1E1E1E1E1E1E1E1E1E1E1E1E1E1E1E1E1E1E1E1E1E1E1E1E1E1E1E1E1E1
310
E1E1E1E1E1E1E1E1E1E1E1E1E1E1E1E1E1E1E1E1E1E1E1E1E1E1E1E1E1E1E1E1E1E1E1E1E2E1E1E1E1E1E1E1E1E1E1E1E1E1E1E1E1E1E1E1E1E1E1E1E1E1E1E1E1E1E1E1E1E1E1E1E1E1E1E1E1E1E1E1E1E1E1E1E1E1E1E1E1E1E1E1E1E1E1E1E1E1E1E1E1E1E1E1E1E1E1E1E1E1E1E1E1E1E1E1E1E1E1E1E1E1E1E1E1E1E1
310
E1E1E1E1E1E1E1E1E1E1E1E1E1E1E1E1E1E1E1E1E1E1E1E1E1E1E1E1E2E1E1E1E1E1E1E1E1E1E1E1E1E1E1E1E2E1E1E1E1E1E1E1E1E1E1E1E1E1E1E1E1E1E1E1E1E1E1E1E1E1E1E1E1E1E2E1E1E1E1E1E1E1E1E1E1E1E1E1E1E1E1E1E1E1E1E1E1E1E1E1E1E1E1E1E1E1E1E1E1E1E1E1E1E1E1E1E1E1E1E1E1E1E1E1E1E1E1
310
E1E1E1E1E1E1E1E1E1E1E1E1E1E1E1E1E1E1E1E1E1E1E1E1E1E1E1E1E1E1E1E1E1E1E1E1E1E1E2E1E1E1E1E1E1E1E1E1E1E1E1E1E1E1E1E1E1E1E1E1E1E1E1E1E1E1E1E1E1E1E1E1E1E1E1E1E1E1E1E1E1E1E1E1E1E1E1E1E1E1E1E1E1E1E1E1E1E1E1E1E1E1E1E1E1E1E1E1E1E1E1E1E1E1E1E1E1E1E1E1E1E1E1E1E1E1E1
310
E1E1E1E1E1E1E1E1E1E1E1E1E1E1E1E1E1E1E1E1E1E1E1E1E1E1E1E1E1E1E2E1E1E1E1E1E1E1E1E1E1E1E1E1E1E1E2E1E1E1E1E1E1E1E1E1E1E1E1E1E1E1E1E1E1E1E1E1E1E1E1E1E1E1E1E1E2E1E1E1E1E1E1E1E1E1E1E1E1E1E1E1E1E1E1E1E1E1E1E1E1E1E1E1E1E1E1E1E1E1E1E1E1E1E1E1E1E1E1E1E1E1E1E1E1E1E1
310
E1E1E1E1E1E1E1E1E1E1E1E1E1E1E1E1E1E1E1E1E1E1E1E1E1E1E1E1E1E1E1E1E1E1E1E1E1E1E1E1E2E1E1E1E1E1E1E1E1E1E1E1E1E1E1E1E1E1E1E1E1E1E1E1E1E1E1E1E1E1E1E1E1E1E1E1E1E1E1E1E1E1E1E1E1E1E1E1E1E1E1E1E1E1E1E1E1E1E1E1E1E1E1E1E1E1E1E1E1E1E1E1E1E1E1E1E1E1E1E1E1E1E1E1E1E1E1
310
E1E1E1E1E1E1E1E1E1E1E1E1E1E1E1E1E1E1E1E1E1E1E1E1E1E1E1E1E1E1E1E1E2E1E1E1E1E1E1E1E1E1E1E1E1E1E1E1E2E1E1E1E1E1E1E1E1E1E1E1E1E1E1E1E1E1E1E1E1E1E1E1E1E1E1E1E1E1E2E1E1E1E1E1E1E1E1E1E1E1E1E1E1E1E1E1E1E1E1E1E1E1E1E1E1E1E1E1E1E1E1E1E1E1E1E1E1E1E1E1E1E1E1E1E1E1E1
310
E1E1E1E1E1E1E1E1E1E1E1E1E1E1E1E1E1E1E1E1E1E1E1E1E1E1E1E1E1E1E1E1E1E1E1E1E1E1E1E1E1E1E2E1E1E1E1E1E1E1E1E1E1E1E1E1E1E1E1E1E1E1E1E1E1E1E1E1E1E1E1E1E1E1E1E1E1E1E1E1E1E1E1E1E1E1E1E1E1E1E1E1E1E1E1E1E1E1E1E1E1E1E1E1E1E1E1E1E1E1E1E1E1E1E1E1E1E1E1E1E1E1E1E1E1E1E1
310
E1E1E1E1E1E1E1E1E1E1E1E1E1E1E1E1E1E1E1E1E1E1E1E1E1E1E1E1E1E1E1E1E1E1E2E1E1E1E1E1E1E1E1E1E1E1E1E1E1E1E2E1E1E1E1E1E1E1E1E1E1E1E1E1E1E1E1E1E1E1E1E1E1E1E1E1E1E1E1E1E2E1E1E1E1E1E1E1E1E1E1E1E1E1E1E1E1E1E1E1E1E1E1E1E1E1E1E1E1E1E1E1E1E2E2E1E1E1E1E1E1E1E2E2E1E1E1
310
E1E1E1E1E1E1E2E1E1E1E1E1E1E1E1E1E1E1E1E1E1E1E1E1E1E1E1E1E1E1E1E1E1E1E1E1E1E1E1E1E1E1E1E1E2E1E1E1E1E1E1E1E1E1E1E1E1E1E1E1E1E1E1E1E1E1E1E1E1E1E1E1E1E1E1E1E1E1E1E1E1E1E1E1E1E1E1E1E1E1E1E1E1E1E1E1E1E1E1E1E1E1E1E1E1E1E1E1E1E1E1E1E1E1E1E1E1E1E1E1E1E1E1E1E1E1E1
310
E1E1E1E1E1E1E1E1E1E1E1E1E1E1E1E1E1E1E1E1E1E1E1E1E1E1E1E1E1E1E1E1E1E1E1E1E2E1E1E1E1E1E1E1E1E1E1E1E1E1E1E1E2E1E1E1E1E1E1E1E1E1E1E1E1E1E1E1E1E1E1E1E1E1E1E1E1E1E1E1E1E1E2E1E1E1E1E1E1E1E1E1E1E1E1E1E1E1E1E1E1E1E1E1E1E1E1E1E1E1E1E1E1E1E1E2E2E1E1E1E1E1E1E1E2E2E1
310
E1E1E1E1E1E1E1E2E2E2E1E1E1E1E1E1E1E1E1E1E1E1E1E1E1E1E1E1E1E1E1E1E1E1E1E1E1E1E1E1E1E1E1E1E1E1E2E1E1E1E1E1E1E1E1E1E1E1E1E1E1E1E1E1E1E1E1E1E1E1E1E1E1E1E1E1E1E1E1E1E1E1E1E1E1E1E1E1E1E1E1E1E1E1E1E1E1E1E1E1E1E1E1E1E1E1E1E1E1E1E1E1E1E1E1E1E1E1E1E1E1E1E1E1E1E1E1
310
E1E1E1E1E1E1E1E1E1E1E1E1E1E1E1E1E1E1E1E1E1E1E1E1E1E1E1E1E1E1E1E1E1E1E1E1E1E1E2E1E1E1E1E1E1E1E1E1E1E1E1E1E1E1E2E1E1E1E1E1E1E1E1E2E2E1E1E1E1E1E1E1E1E1E1E1E1E1E1E1E1E1E1E1E2E1E1E1E1E1E1E1E1E1E1E1E1E1E1E1E1E1E1E1E1E1E1E1E1E1E1E1E1E1E1E1E1E2E2E1E1E1E1E1E1E1E2
310
E2E1E1E1E1E1E1E1E1E2E2E2E1E1E1E1E1E1E1E1E1E1E1E1E1E1E1E1E1E1E1E1E1E1E1E1E1E1E1E1E1E1E1E1E1E1E1E1E2E1E1E1E1E1E1E1E1E1E1E1E1E1E1E1E1E1E1E1E1E1E1E1E1E1E1E1E1E1E1E1E1E1E1E1E1E1E1E1E1E1E1E1E1E1E1E1E1E1E1E1E1E1E1E1E1E1E1E1E1E1E1E1E1E1E1E1E1E1E1E1E1E1E1E1E1E1E1
310
E1E1E1E1E1E1E1E1E1E1E1E1E1E1E1E1E1E1E1E1E1E1E1E1E1E1E1E1E1E1E1E1E1E1E1E1E1E1E1E1E2E1E1E1E1E1E1E1E1E1E1E1E1E1E1E1E2E1E1E1E1E1E1E1E1E2E2E1E1E1E1E1E1E1E1E1E1E1E1E1E1E1E1E1E1E1E2E1E1E1E1E1E1E1E1E1E1E1E1E1E1E1E1E1E1E1E1E1E1E1E1E1E1E1E1E1E1E1E1E2E2E1E1E1E1E1E1
310
E1E2E2E1E1E1E1E1E1E1E1E2E2E2E1E1E1E1E1E1E1E1E1E1E1E1E1E1E1E1E1E1E1E1E1E1E1E1E1E1E1E1E1E1E1E1E1E1E1E1E2E1E1E1E1E1E1E1E1E1E1E1E1E1E1E1E1E1E1E1E1E1E1E1E1E1E1E1E1E1E1E1E1E1E1E1E1E1E1E1E1E1E1E1E1E1E1E1E1E1E1E1E1E1E1E1E1E1E1E1E1E1E1E1E1E1E1E1E1E1E1E1E1E1E1E1E1
310
E1E1E1E1E1E1E1E1E1E1E1E1E1E1E1E1E1E1E1E1E1E1E1E1E1E1E1E1E1E1E1E1E1E1E1E1E1E1E1E1E1E1E2E1E1E1E1E1E1E1E1E1E1E1E1E1E1E1E2E1E1E1E1E1E1E1E1E2E2E1E1E1E1E1E1E1E1E1E1E1E1E1E1E1E1E1E1E1E2E1E1E1E1E1E1E1E1E1E1E1E1E1E1E1E1E1E1E1E1E1E1E1E1E1E1E1E1E1E1E1E1E2E2E1E1E1E1
310
E1E1E1E2E2E1E1E1E1E1E1E1E1E2E2E2E1E1E1E1E1E1E1E1E1E1E1E1E1E1E1E1E1E1E1E1E1E1E1E1E1E1E1E1E1E1E1E1E1E1E1E1E2E1E1E1E1E1E1E1E1E1E1E1E1E1E1E1E1E1E1E1E1E1E1E1E1E1E1E1E1E1E1E1E1E1E1E1E1E1E1E1E1E1E1E1E1E1E1E1E1E1E1E1E1E1E1E1E1E1E1E1E1E1E1E1E1E2E2E2E2E2E2E2E2E2E2
310
E2E2E2F0F0F0F0F0F0E2E1E1E1E1E1E1E1E1E1E1E1E1E1E1E2E2F0F0E2E1E1E1E1E1E1E1E1E1E1E1E1E1E1E1E2E1E1E1E1E1E1E1E1E1E1E1E1E1E1E1E2E1E1E1E1E1E1E1E1E2E2E1E1E1E1E1E1E1E1E1E1E1E1E1E1E1E1E1E1E1E2E1E1E1E1E1E1E1E1E1E1E1E1E1E1E1E1E1E1E1E1E1E1E1E1E1E1E1E1E1E1E1E1E2E2E1E1
310
E1E1E1E1E1E2E2E1E1E1E1E1E1E1E1E2E2E2E1E1E1E1E1E1E1E1E1E1E1E1E1E1E1E1E1E1E1E1E1E1E1E1E1E1E1E1E1E1E1E1E1E1E1E1E2E1E1E1E1E1E1E1E1E1E1E1E1E1E1E1E1E1E1E1E1E1E1E1E1E1E1E1E1E1E1E1E1E1E1E1E1E1E1E1E1E1E1E1E1E1E1E1E1E1E1E1E1E1E1E1E1E1E1E1E1E1E1E1E1E1E1E1E1E1E1E1E1
310
E1E1E1E1E1E1E1E1E1E1E1E1E1E1E1E1E1E1E1E1E1E1E1E1E1E1E2E1E1E1E2E1E1E1E1E1E1E1E1E1E1E1E1E1E1E1E2E1E1E1E1E1E1E1E1E1E1E1E1E1E1E1E2E1E1E1E1E1E1E1E1E2E2E1E1E1E1E1E2E2E1E1E1E1E1E1E1E1E1E1E1E1E2E1E1E1E1E1E1E1E1E1E1E1E1E1E1E1E1E1E1E1E1E1E1E1E1E1E1E1E1E1E1E1E1E2E2
310
E1E1E1E1E1E1E1E2E2E1E1E1E1E1E1E1E1E2E2E2E1E1E1E1E1E1E1E1E1E1E1E1E1E1E1E1E1E1E1E1E1E1E1E1E1E1E1E1E1E1E1E1E1E1E1E1E2E1E1E1E1E1E1E1E1E1E1E1E1E1E1E1E1E1E1E1E1E1E1E1E1E1E1E1E1E1E1E1E1E1E1E1E1E1E1E1E1E1E1E1E1E1E1E1E1E1E1E1E1E1E1E1E1E1E1E1E1E1E1E1E1E1E1E1E1E1E1
310
E1E1E1E1E1E1E1E1E1E1E1E1E1E1E1E1E1E1E1E1E1E1E1E1E1E1E1E1E2E1E2E2E2E1E1E1E1E1E1E1E1E1E1E1E1E1E1E1E2E1E1E1E1E1E1E1E1E1E1E1E1E1E1E1E2E1E1E1E1E1E1E1E1E2E2E1E1E1E1E1E2E2E1E1E1E1E1E1E1E1E1E1E1E1E2E1E1E1E1E1E1E1E1E1E1E1E1E1E1E1E1E1E1E1E1E1E1E1E1E1E1E1E1E1E1E1E1
310
E2E2E1E1E1E1E1E1E1E2E2E1E1E1E1E1E1E1E1E2E2E2E1E1E1E1E1E1E1E1E1E1E1E1E1E1E1E1E1E1E1E1E1E1E1E1E1E1E1E1E1E1E1E1E1E1E1E1E2E1E1E1E1E1E1E1E1E1E1E1E1E1E1E1E1E1E1E1E1E1E1E1E1E1E1E1E1E1E1E1E1E1E1E1E1E1E1E1E1E1E1E1E1E1E1E1E1E1E1E1E1E1E1E1E1E1E1E1E1E1E1E1E1E1E1E1E1
310
E1E1E1E1E1E1E1E1E1E1E1E1E1E1E1E1E1E1E1E1E1E1E1E1E1E1E1E1E1E1E2E1E2E2E2E1E1E1E1E1E1E1E1E1E1E1E1E1E1E1E2E1E1E1E1E1E1E1E1E1E1E1E1E1E1E1E2E1E1E1E1E1E1E1E1E2E2E1E1E1E1E1E2E2E1E1E1E1E1E1E1E1E1E1E1E1E2E1E1E1E1E1E1E1E1E1E1E1E1E1E1E1E1E1E1E1E1E1E1E1E1E1E1E1E1E1E1
310
E1E1E2E2E1E1E1E1E1E1E1E2E2E1E1E1E1E1E1E1E1E2E2E2E1E1E1E1E1E1E1E1E1E1E1E1E1E1E1E1E1E1E1E1E1E1E1E1E1E1E1E1E1E1E1E1E1E1E1E1E2E1E1E1E1E1E1E1E1E1E1E1E1E1E1E1E1E1E1E1E1E1E1E1E1E1E1E1E1E1E1E1E1E1E1E1E1E1E1E1E1E1E1E1E1E1E1E1E1E1E1E1E1E1E1E1E1E1E1E1E1E1E1E1E1E1E1
310
E1E1E1E1E1E1E1E1E1E1E1E1E1E1E1E1E1E1E1E1E1E1E1E1E1E1E1E1E1E1E1E1E2E1E1E1E2E1E1E1E1E1E1E1E1E1E1E1E1E1E1E1E2E1E1E1E1E1E1E1E1E1E1E1E1E1E1E1E2E1E1E1E1E1E1E1E1E2E2E1E1E1E1E1E2E2E1E1E1E1E1E1E1E1E1E1E1E1E2E1E1E1E1E1E1E1E1E1E1E1E1E1E1E1E1E1E1E1E1E1E1E1E1E1E1E1E1
310
E1E1E1E1E2E2E1E1E1E1E1E1E1E2E2E1E1E1E1E1E1E1E1E2E2E2E1E1E1E1E1E1E1E1E1E1E1E1E1E1E1E1E1E1E1E1E1E1E1E1E1E1E1E1E1E1E1E1E1E1E1E1E2E1E1E1E1E1E1E1E1E1E1E1E1E1E1E1E1E1E1E1E1E1E1E1E1E1E1E1E1E1E1E1E1E1E1E1E1E1E1E1E1E1E1E1E1E1E1E1E1E1E1E1E1E1E1E1E1E1E1E1E1E1E1E1E1
310
E1E1E1E1E1E1E1E1E1E1E1E1E1E1E1E1E1E1E1E1E1E1E1E1E1E1E1E1E1E1E1E1E1E1E2E2E2E2E2E1E1E1E1E1E1E1E1E1E1E1E1E1E1E1E2E1E1E1E1E1E1E1E1E1E1E1E1E1E1E1E2E1E1E1E1E1E1E1E1E2E2E1E1E2E2E1E2E2E1E1E1E1E1E1E1E1E1E1E1E1E2E1E1E1E1E1E1E1E1E1E1E1E1E1E1E1E1E1E1E1E1E1E1E1E1E1E1
310
E1E1E1E1E1E1E2E2E1E1E1E1E1E1E1E2E2E1E1E1E1E1E1E1E1E2E2E2E1E1E1E1E1E1E1E1E1E1E1E1E1E1E1E1E1E1E1E1E1E1E1E1E1E1E1E1E1E1E1E1E1E1E1E1E2E1E1E1E1E1E1E1E1E1E1E1E1E1E1E1E1E1E1E1E1E1E1E1E1E1E1E1E1E1E1E1E1E1E1E1E1E1E1E1E1E1E1E1E1E1E1E1E1E1E1E1E1E1E1E1E1E1E1E1E1E1E1
310
E1E1E1E1E1E1E1E1E1E1E1E1E1E1E1E1E1E1E1E1E1E1E1E1E1E1E1E1E1E1E1E1E1E1E1E1E1E1E1E1E1E1E1E1E1E1E1E1E1E1E1E1E1E1E1E1E2E1E1E1E1E1E1E1E1E1E1E1E1E1E1E1E2E1E1E1E1E1E1E1E1E2E2E2E2E2E2E2E2E2E1E1E1E1E1E1E1E1E1E1E1E1E2E1E1E1E1E1E1E1E1E1E1E1E1E1E1E1E1E1E1E1E1E1E1E1E1
310
E1E1E1E1E1E1E1E1E2E2E1E1E1E1E1E1E1E2E2E1E1E1E1E1E1E1E1E2E2E2E1E1E1E1E1E1E1E1E1E1E1E1E1E1E1E1E1E1E1E1E1E1E1E1E1E1E1E1E1E1E1E1E1E1E1E1E2E1E1E1E1E1E1E1E1E1E1E1E1E1E1E1E1E1E1E1E1E1E1E1E1E1E1E1E1E1E1E1E1E1E1E1E1E1E1E1E1E1E1E1E1E1E1E1E1E1E1E1E1E1E1E1E1E1E1E1E1
310
E1E1E1E1E1E1E1E1E1E1E1E1E1E1E1E1E1E1E1E1E1E1E1E1E1E1E1E1E1E1E1E1E1E1E1E1E1E1E1E1E1E1E1E1E1E1E1E1E1E1E1E1E1E1E1E1E1E1E2E1E1E1E1E1E1E1E1E1E1E1E1E1E1E1E2E1E1E1E1E1E1E1E1E2E2E2E1E2E2E1E2E2E2E1E1E1E1E1E1E1E1E1E1E1E2E1E1E1E1E1E1E1E1E1E1E1E1E1E1E1E1E1E1E1E1E1E1
310
E1E1E1E1E1E1E2E2E2E2E2E2E2E2E1E1E1E1E1E2E2E2E2E2E2E2E2E2E2E2E2E2E1E1E1E1E1E1E1E1E1E1E1E1E1E1E1E1E1E1E1E1E1E1E1E1E1E1E1E1E1E1E1E1E1E1E1E1E2E1E1E1E1E1E1E1E1E1E1E1E1E1E1E1E1E1E1E1E1E1E1E1E1E1E1E1E1E1E1E1E1E1E1E1E1E1E1E1E1E1E1E1E1E1E1E1E1E1E1E1E1E1E1E1E1E1E1
310
E1E1E1E1E1E1E1E1E1E1E1E1E1E1E1E1E1E1E1E1E1E1E1E1E1E1E1E1E1E1E1E1E1E1E1E1E1E1E1E1E1E1E1E1E1E1E1E1E1E1E1E1E1E1E1E1E1E1E1E1E2E1E1E1E1E1E1E1E1E1E1E1E1E1E1E1E2E1E1E1E1E1E1E1E1E2E2E1E1E2E2E2E2E1E2E2E2E1E1E1E1E1E1E1E1E1E2E1E1E1E1E1E1E1E1E1E1E1E1E1E1E1E1E1E1E1E1
310
E1E1E1E1E1E1E1E1E2E1E1E1E2E2E1E2E1E1E1E1E1E2E2E2E2E2E2E2E2E2E2E2E2E2E1E1E1E1E1E1E1E1E1E1E1E1E1E1E1E1E1E1E1E1E1E1E1E1E1E1E1E1E1E1E1E1E1E1E1E1E2E1E1E1E1E1E1E1E1E1E1E1E1E1E1E1E1E1E1E1E1E1E1E1E1E1E1E1E1E1E1E1E1E1E1E1E1E1E1E1E1E1E1E1E1E1E1E1E1E1E1E1E1E1E1E1E1
310
E1E1E1E1E1E1E1E1E1E1E1E1E1E1E1E1E1E1E1E1E1E1E1E1E1E1E1E1E1E1E1E1E1E1E1E1E1E1E1E1E1E1E1E1E1E1E1E1E1E1E1E1E1E1E1E1E1E1E1E1E1E1E2E1E1E1E1E1E1E1E1E1E1E1E1E1E1E1E2E1E1E1E1E1E1E1E1E2E2E2E2E2E2E2E2E2E2E2E2E1E1E1E1E1E1E1E1E1E2E1E1E1E1E1E1E1E1E1E1E1E1E1E1E1E1E1E1
310
E1E1E1E1E1E1E1E1E1E1E2E1E1E1E2E2E1E2E1E1E1E1E1E2E2E2E2E1E1E1E1E1E2E2E2E2E1E1E1E1E1E1E1E1E1E1E1E1E1E1E1E1E1E1E1E1E1E1E1E1E1E1E1E1E1E1E1E1E1E1E1E1E2E1E1E1E1E1E1E1E1E1E1E1E1E1E1E1E1E1E1E1E1E1E1E1E1E1E1E1E1E1E1E1E1E1E1E1E1E1E1E1E1E1E1E1E1E1E1E1E1E1E1E1E1E1E1
310
E1E1E1E1E1E1E1E1E1E1E1E1E1E1E1E1E1E1E1E1E1E1E1E1E1E1E1E1E1E1E1E1E1E1E1E1E1E1E1E1E1E1E1E1E1E1E1E1E1E1E1E1E1E1E1E1E1E1E1E1E1E1E1E1E2E1E1E1E1E1E1E1E1E1E1E1E1E1E1E1E2E1E1E1E1E1E1E1E1E2E2E2E2E2E1E1E2E2E2E2E2E1E1E1E1E1E1E1E1E1E2E1E1E1E1E1E1E1E1E1E1E1E1E1E1E1E1
310
E1E1E1E1E1E1E1E1E1E1E1E1E2E1E1E1E2E2E1E2E1E1E1E1E1E2E2E1E2E2E2E2E2E2E2E2E2E2E1E1E1E1E1E1E1E1E1E1E1E1E1E1E1E1E1E1E1E1E1E1E1E1E1E1E1E1E1E1E1E1E1E1E1E1E2E1E1E1E1E1E1E1E1E1E1E1E1E1E1E1E1E1E1E1E1E1E1E1E1E1E1E1E1E1E1E1E1E1E1E1E1E1E1E1E1E1E1E1E1E1E1E1E1E1E1E1E1
310
E1E1E1E1E1E1E1E1E1E1E1E1E1E1E1E1E1E1E1E1E1E1E1E1E1E1E1E1E1E1E1E1E1E1E1E1E1E1E1E1E1E1E1E1E1E1E1E1E1E1E1E1E1E1E1E1E1E1E1E1E1E1E1E1E1E1E2E1E1E1E1E1E1E1E1E1E1E1E1E1E1E1E2E1E1E1E1E1E1E1E1E2E1E1E1E1E2E2E2E2E2E2E2E1E1E1E1E1E1E1E1E1E2E1E1E1E1E1E1E1E1E1E1E1E1E1E1
310
E1E1E1E1E1E1E1E1E1E1E1E1E1E1E2E2E2E2E2E2E2E2E1E1E1E1E1E2E2E2E2E2E2E2E2E2E2E2E2E2E1E1E1E1E1E1E1E1E1E1E1E1E1E1E1E1E1E1E1E1E1E1E1E1E1E1E1E1E1E1E1E1E1E1E1E1E2E1E1E1E1E1E1E1E1E1E1E1E1E1E1E1E1E1E1E1E1E1E1E1E1E1E1E1E1E1E1E1E1E1E1E1E1E1E1E1E1E1E1E1E1E1E1E1E1E1E1
310
E1E1E1E1E1E1E1E1E1E1E1E1E1E1E1E1E1E1E1E1E1E1E1E1E1E1E1E1E1E1E1E1E1E1E1E1E1E1E1E1E1E1E1E1E1E1E1E1E1E1E1E1E1E1E1E1E1E1E1E1E1E1E1E1E1E1E1E1E2E1E1E1E1E1E1E1E1E1E1E1E1E1E1E1E2E1E1E1E1E1E1E1E1E1E1E1E1E1E1E2E1E1E2E2E1E1E1E1E1E1E1E1E1E1E2E1E1E1E1E1E1E1E1E1E1E1E1
310
E1E1E1E1E1E1E1E1E1E1E1E1E1E1E1E1E1E1E1E1E1E1E1E1E1E1E1E1E1E1E1E1E1E1E1E1E1E1E1E1E1E1E1E1E1E1E1E1E1E1E1E1E1E1E1E1E1E1E1E1E1E1E1E1E1E1E1E1E1E1E1E1E1E1E1E1E1E1E2E1E1E1E1E1E1E1E1E1E1E1E1E1E1E1E1E1E1E1E1E1E1E1E1E1E1E1E1E1E1E1E1E1E1E1E1E1E1E1E1E1E1E1E1E1E1E1E1
310
E1E1E1E1E1E1E1E1E1E1E1E1E1E1E1E1E1E1E1E1E1E1E1E1E1E1E1E1E1E1E1E1E1E1E1E1E1E1E1E1E1E1E1E1E1E1E1E1E1E1E1E1E1E1E1E1E1E1E1E1E1E1E1E1E1E1E1E1E1E1E2E1E1E1E1E1E1E1E1E1E1E1E1E1E1E1E2E1E1E1E1E1E1E1E1E1E1E1E1E1E1E2E2E2E2E1E1E1E1E1E1E1E1E1E1E1E2E1E1E1E1E1E1E1E1E1E1
310
E1E1E1E1E1E1E1E1E1E1E1E1E1E1E1E1E1E1E1E1E1E1E1E1E1E1E1E1E1E1E1E1E1E1E1E1E1E1E1E1E1E1E1E1E1E1E1E1E1E1E1E1E1E1E1E1E1E1E1E1E1E1E1E1E1E1E1E1E1E1E1E1E1E1E1E1E1E1E1E1E2E1E1E1E1E1E1E1E1E1E1E1E1E1E1E1E1E1E1E1E1E1E1E1E1E1E1E1E1E1E1E1E1E1E1E1E1E1E1E1E1E1E1E1E1E1E1
310
E1E1E1E1E1E1E1E1E1E1E1E1E1E1E1E1E1E1E1E1E1E1E1E1E1E1E1E1E1E1E1E1E1E1E1E1E1E1E1E1E1E1E1E1E1E1E1E1E1E1E1E1E1E1E1E1E1E1E1E1E1E1E1E1E1E1E1E1E1E1E1E1E2E1E1E1E1E1E1E1E1E1E1E1E1E1E1E1E2E1E1E1E1E1E1E1E1E1E1E1E1E1E1E2E2E2E1E1E1E1E1E1E1E1E1E1E1E1E2E1E1E1E1E1E1E1E1
310
E1E1E1E1E1E1E1E1E1E1E1E1E1E1E1E1E1E1E1E1E1E1E1E1E1E1E1E1E1E1E1E1E1E1E1E1E1E1E1E1E1E1E1E1E1E1E1E1E1E1E1E1E1E1E1E1E1E1E1E1E1E1E1E1E1E1E1E1E1E1E1E1E1E1E1E1E1E1E1E1E1E1E2E1E1E1E1E1E1E1E1E1E1E1E1E1E1E1E1E1E1E1E1E1E1E1E1E1E1E1E1E1E1E1E1E1E1E1E1E1E1E1E1E1E1E1E1
310
E1E1E1E1E1E1E1E1E1E1E1E1E1E1E1E1E1E1E1E1E1E1E1E1E1E1E1E1E1E1E1E1E1E1E1E1E1E1E1E1E1E1E1E1E1E1E1E1E1E1E1E1E1E1E1E1E1E1E1E1E1E1E1E1E1E1E1E1E1E1E1E1E1E1E2E1E1E1E1E1E1E1E1E1E1E1E1E1E1E1E2E1E1E1E1E1E1E1E1E1E1E1E1E1E1E1E1E1E1E1E1E1E1E1E1E1E1E1E1E1E2E1E1E1E1E1E1
310
E1E1E1E1E1E1E1E1E1E1E1E1E1E1E1E1E1E1E1E1E1E1E1E1E1E1E1E1E1E1E1E1E1E1E1E1E1E1E1E1E1E1E1E1E1E1E1E1E1E1E1E1E1E1E1E1E1E1E1E1E1E1E1E1E1E1E1E1E1E1E1E1E1E1E1E1E1E1E1E1E1E1E1E1E2E1E1E1E1E1E1E1E1E1E1E1E1E1E1E1E1E1E1E1E1E1E1E1E1E1E1E1E1E1E1E1E1E1E1E1E1E1E1E1E1E1E1
310
E1E1E1E1E1E1E1E1E1E1E1E1E1E1E1E1E1E1E1E1E1E1E2E2E2E2E2E2E2E2E2E2E2E2E2E2E2E2E2E2E2E2E1E1E1E1E1E1E1E1E1E1E1E1E1E1E1E1E1E1E1E1E1E1E1E1E1E1E1E1E1E1E1E1E1E1E2E1E1E1E1E1E1E1E1E1E1E1E1E1E1E1E2E1E1E1E1E1E1E1E1E1E1E1E1E1E1E1E1E1E1E1E1E1E1E1E1E1E1E1E1E1E2E1E1E1E1
310
E1E1E1E1E1E1E1E1E1E1E1E1E1E1E1E1E1E1E1E1E1E1E1E1E1E1E1E1E1E1E1E1E1E1E1E1E1E1E1E1E1E1E1E1E1E1E1E1E1E1E1E1E1E1E1E1E1E1E1E1E1E1E1E1E1E1E1E1E1E1E1E1E1E1E1E1E1E1E1E1E1E1E1E1E1E1E2E1E1E1E1E1E1E1E1E1E1E1E1E1E1E1E1E1E1E1E1E1E1E1E1E1E1E1E1E1E1E1E1E1E1E1E1E1E1E1E1
310
E1E1E1E1E1E1E1E1E1E1E1E1E1E1E1E1E1E1E1E1E1E1E1E1E1E1E1E1E1E1E1E1E1E1E1E1E1E1E1E1E1E1E1E2E1E1E1E1E1E1E1E1E1E1E1E1E1E1E1E1E1E1E1E1E1E1E1E1E1E1E1E1E1E1E1E1E1E1E2E1E1E1E1E1E1E1E1E1E1E1E1E1E1E1E2E1E1E1E1E1E1E1E1E1E1E1E1E1E1E1E1E1E1E1E1E1E1E1E1E1E1E1E1E1E2E1E1
310
E1E1E1E1E1E1E1E1E1E1E1E1E1E1E1E1E1E1E1E1E1E1E1E1E1E1E1E1E1E1E1E1E1E1E1E1E1E1E1E1E1E1E1E1E1E1E1E1E1E1E1E1E1E1E1E1E1E1E1E1E1E1E1E1E1E1E1E1E1E1E1E1E1E1E1E1E1E1E1E1E1E1E1E1E1E1E1E1E2E1E1E1E1E1E1E1E1E1E1E1E1E1E1E1E1E1E1E1E1E1E1E1E1E1E1E1E1E1E1E1E1E1E1E1E1E1E1
310
E1E1E1E1E1E1E1E1E1E1E1E1E1E1E1E1E1E1E1E1E1E1E1E1E1E1E1E1E1E1E1E1E1E1E1E1E1E1E1E2E2E2E2E2E2E2E1E1E1E1E1E1E1E1E1E1E1E1E1E1E1E1E1E1E1E1E1E1E1E1E1E1E1E1E1E1E1E1E1E1E2E1E1E1E1E1E1E1E1E1E1E1E1E1E1E1E2E1E1E1E1E1E1E1E1E1E1E1E1E1E1E1E1E1E1E1E1E1E1E1E1E1E1E1E1E1E2
310
E1E1E1E1E1E1E1E1E1E1E1E1E1E1E1E1E1E1E1E1E1E1E1E1E1E1E1E1E1E1E1E1E1E1E1E1E1E1E1E1E1E1E2E2E2E2E2E2E2E2E2E2E2E1E1E1E1E1E1E1E1E1E1E1E1E1E1E1E1E1E1E1E1E1E1E1E1E1E1E1E1E1E1E1E1E1E1E1E1E1E2E1E1E1E1E1E1E1E1E1E1E1E1E1E1E1E1E1E1E1E1E1E1E1E1E1E1E1E1E1E1E1E1E1E1E1E1
310
E1E1E1E1E1E1E1E1E1E1E1E1E1E1E1E1E1E1E1E1E1E1E1E1E1E1E1E1E1E1E1E1E1E1E1E1E1E1E1E1E1E2E2E2E2E2E2E2E1E1E1E1E1E1E1E1E1E1E1E1E1E1E1E1E1E1E1E1E1E1E1E1E1E1E1E1E1E1E1E1E1E1E2E1E1E1E1E1E1E1E1E1E1E1E1E1E1E1E2E1E1E1E1E1E1E1E1E1E1E1E1E1E1E1E1E1E1E1E1E1E1E1E1E1E1E1E1
310
E1E2E1E1E1E1E1E1E1E1E1E1E1E1E1E1E1E1E1E1E1E1E1E1E1E1E1E1E1E1E1E1E1E1E1E1E1E1E1E1E1E1E1E2E2E1E1E1E1E1E1E1E1E1E2E1E1E1E1E1E1E1E1E1E1E1E1E1E1E1E1E1E1E1E1E1E1E1E1E1E1E1E1E1E1E1E1E1E1E1E1E1E2E1E1E1E1E1E1E1E1E1E1E1E1E1E1E1E1E1E1E1E1E1E1E1E1E1E1E1E1E1E1E1E1E1E1
310
E1E1E1E1E1E1E1E1E1E1E1E1E1E1E1E1E1E1E1E1E1E1E1E1E1E1E1E1E1E1E2E2E2E2E2E2E2E2E2E2E2E2E2E2E2E2E2E2E2E2E1E1E1E1E1E1E1E1E1E1E1E1E1E1E1E1E1E1E1E1E1E1E1E1E1E1E1E1E1E1E1E1E1E1E2E1E1E1E1E1E1E1E1E1E1E1E1E1E1E1E2E1E1E1E1E1E1E1E1E1E1E1E1E1E1E1E1E1E1E1E1E1E1E1E1E1E1
310
E1E1E1E2E1E1E1E1E1E1E1E1E1E1E1E1E1E1E1E1E1E1E1E1E1E1E1E1E1E1E1E1E1E1E1E1E1E1E1E1E1E1E1E1E1E2E2E1E1E1E1E1E1E1E1E2E2E2E1E1E1E1E1E1E1E1E1E1E1E1E1E1E1E1E1E1E1E1E1E1E1E1E1E1E1E1E1E1E1E1E1E1E1E1E2E1E1E1E1E1E1E1E1E1E1E1E1E1E1E1E1E1E1E1E1E1E1E1E1E1E1E1E1E1E1E1E1
310
E1E1E1E1E1E1E1E1E1E1E1E1E1E1E1E1E1E1E1E1E1E1E1E1E1E1E1E1E1E1E1E1E1E1E1E1E1E1E1E1E1E1E1E1E1E1E1E1E1E1E1E1E1E1E1E1E1E1E1E1E1E1E1E1E1E1E1E1E1E1E1E1E1E1E1E1E1E1E1E1E1E1E1E1E1E1E2E1E1E1E1E1E1E1E1E1E1E1E1E1E1E1E2E1E1E1E1E1E1E1E1E1E1E1E1E1E1E1E1E1E1E1E1E1E1E1E1
310
E1E1E1E1E1E2E1E1E1E1E1E1E1E1E1E1E1E1E1E1E1E1E1E1E1E1E1E1E1E1E1E1E1E1E1E1E1E1E1E1E1E1E1E1E1E1E1E1E2E1E1E1E1E1E1E1E1E1E2E1E1E1E1E1E1E1E1E1E1E1E1E1E1E1E1E1E1E1E1E1E1E1E1E1E1E1E1E1E1E1E1E1E1E1E1E1E2E1E1E1E1E1E1E1E1E1E1E1E1E1E1E1E1E1E1E1E1E1E1E1E1E1E1E1E1E1E1
310
E1E1E1E1E1E1E1E1E1E1E1E1E1E1E1E1E1E1E1E1E1E1E1E1E1E1E1E1E1E1E1E1E1E1E1E1E1E1E1E1E1E1E1E1E1E1E1E1E1E1E1E1E1E1E1E1E1E1E1E1E1E1E1E1E1E1E1E1E1E1E1E1E1E1E1E1E1E1E1E1E1E1E1E1E1E1E1E1E2E1E1E1E1E1E1E1E1E1E1E1E1E1E1E1E2E1E1E1E1E1E1E1E1E1E1E1E1E1E1E1E1E1E1E1E1E1E1
310
E1E1E1E1E1E1E1E2E1E1E1E1E1E1E1E1E1E1E1E1E1E1E1E1E1E1E1E1E1E1E1E1E1E1E1E1E1E1E1E1E1E1E1E1E1E1E1E1E1E1E2E1E1E1E1E1E1E1E1E1E2E1E1E1E1E1E1E1E1E1E1E1E1E1E1E1E1E1E1E1E1E1E1E1E1E1E1E1E1E1E1E1E1E1E1E1E1E1E2E1E1E1E1E1E1E1E1E1E1E1E1E1E1E1E1E1E1E1E1E1E1E1E1E1E1E1E1
310
E1E1E1E1E1E1E1E1E1E1E1E1E1E1E1E1E1E1E1E1E1E1E1E1E1E1E1E1E1E1E1E1E1E1E1E1E1E1E1E1E1E1E1E1E1E1E1E1E1E1E1E1E1E1E1E1E1E1E1E1E1E1E1E1E1E1E1E1E1E1E1E1E1E1E1E1E1E1E1E1E1E1E1E1E1E1E1E1E1E1E2E1E1E1E1E1E1E1E1E1E1E1E1E1E1E1E2E1E1E1E1E1E1E1E1E1E1E1E1E1E1E1E1E1E1E1E1
310
E1E1E1E1E1E1E1E1E1E2E1E1E1E1E1E1E1E1E1E1E1E1E1E1E1E1E1E1E1E1E1E1E1E1E1E1E1E1E1E1E1E1E1E1E1E1E1E1E1E1E1E1E2E1E1E1E1E1E1E1E1E1E2E1E1E1E1E1E1E1E1E1E1E1E1E1E1E1E1E1E1E1E1E1E1E1E1E1E1E1E1E1E1E1E1E1E1E1E1E1E2E1E1E1E1E1E1E1E1E1E1E1E1E1E1E1E1E1E1E1E1E1E1E1E1E1E1
310
E1E1E1E1E1E1E1E1E1E1E1E1E1E1E1E1E1E1E1E1E1E1E1E1E1E1E1E1E1E1E1E1E1E1E1E1E1E1E1E1E1E1E1E1E1E1E1E1E1E1E1E1E1E1E1E1E1E1E1E1E1E1E1E1E1E1E1E1E1E1E1E1E1E1E1E1E1E1E1E1E1E1E1E1E1E1E1E1E1E1E1E1E2E1E1E1E1E1E1E1E1E1E1E1E1E1E1E1E2E1E1E1E1E1E1E1E1E1E1E1E1E1E1E1E1E1E1
310
E1E1E1E1E1E1E1E1E1E1E1E2E1E1E1E1E1E1E1E1E1E1E1E1E1E1E1E1E1E1E1E1E1E1E1E1E1E1E1E1E1E1E1E1E1E1E1E1E1E1E1E1E1E1E2E1E1E1E1E1E1E1E1E1E2E1E1E1E1E1E1E1E1E1E1E1E1E1E1E1E1E1E1E1E1E1E1E1E1E1E1E1E1E1E1E1E1E1E1E1E1E1E2E1E1E1E1E1E1E1E1E1E1E1E1E1E1E1E1E1E1E1E1E1E1E1E1
310
E1E1E1E1E1E1E1E1E1E1E1E1E1E1E1E1E1E1E1E1E1E1E1E1E1E1E1E1E1E1E1E1E1E1E1E1E1E1E1E1E1E1E1E1E1E1E1E1E1E1E1E1E1E1E1E1E1E1E1E1E1E1E1E1E1E1E1E1E1E1E1E1E1E1E1E1E1E1E1E1E1E1E1E1E1E1E1E1E1E1E1E1E1E1E2E1E1E1E1E1E1E1E1E1E1E1E1E1E1E1E2E1E1E1E1E1E1E1E1E1E1E1E1E1E1E1E1
310
E1E1E1E1E1E1E1E1E1E1E1E1E1E2E1E1E1E1E1E1E1E1E1E1E1E1E1E1E1E1E1E1E1E1E1E1E1E1E1E1E1E1E1E1E1E1E1E1E1E1E1E1E1E1E1E1E2E2E2E2E2E2E2E2E2E2E2E1E1E1E1E1E1E1E1E1E1E1E1E1E1E1E1E1E1E1E1E1E1E1E1E1E1E1E1E1E1E1E1E1E1E1E1E1E2E1E1E1E1E1E1E1E1E1E1E1E1E1E1E1E1E1E1E1E1E1E1
310
E1E1E1E1E1E1E1E1E1E1E1E1E1E1E1E1E1E1E1E1E1E1E1E1E1E1E1E1E1E1E1E1E1E1E1E1E1E1E1E1E1E1E1E1E1E1E1E1E1E1E1E1E1E1E1E1E1E1E1E1E1E1E1E1E1E1E1E1E1E1E1E1E1E1E1E1E1E1E1E1E1E1E1E1E1E1E1E1E1E1E1E1E1E1E1E1E2E1E1E1E1E1E1E1E1E1E1E1E1E1E1E1E2E1E1E1E1E1E1E1E1E1E1E1E1E1E1
310
E1E1E1E1E1E1E1E1E1E1E1E1E1E1E1E2E1E1E1E1E1E1E1E1E1E1E1E1E1E1E1E1E1E1E1E1E1E1E1E1E1E1E1E1E1E1E1E1E1E1E1E1E1E1E1E1E1E1E1E1E1E1E1E1E1E1E1E1E1E1E1E1E1E1E1E1E1E1E1E1E1E1E1E1E1E1E1E1E1E1E1E1E1E1E1E1E1E1E1E1E1E1E1E1E1E1E2E1E1E1E1E1E1E1E1E1E1E1E1E1E1E1E1E1E1E1E1
310
E1E1E1E1E1E1E1E1E1E1E1E1E1E1E1E1E1E1E1E1E1E1E1E1E1E1E1E1E1E1E1E1E1E1E1E1E1E1E1E1E1E1E1E1E1E1E1E1E1E1E1E1E1E1E1E1E1E1E1E1E1E1E1E1E1E1E1E1E1E1E1E1E1E1E1E1E1E1E1E1E1E1E1E1E1E1E1E1E1E1E1E1E1E1E1E1E1E1E2E1E1E1E1E1E1E1E1E1E1E1E1E1E1E1E2E1E1E1E1E1E1E1E1E1E1E1E1
310
E1E1E1E1E1E1E1E1E1E1E1E1E1E1E1E1E1E2E1E1E1E1E1E1E1E1E1E1E1E1E1E1E1E1E1E1E1E1E1E1E1E1E1E1E1E1E1E1E1E1E1E1E1E1E1E1E1E1E1E1E1E1E1E1E1E1E1E1E1E1E1E1E1E1E1E1E1E1E1E1E1E1E1E1E1E1E1E1E1E1E1E1E1E1E1E1E1E1E1E1E1E1E1E1E1E1E1E1E2E1E1E1E1E1E1E1E1E1E1E1E1E1E1E1E1E1E1
310
E1E1E1E1E1E1E1E1E1E1E1E1E1E1E1E1E1E1E1E1E1E1E1E1E1E1E1E1E1E1E1E1E1E1E1E1E1E1E1E1E1E1E1E1E1E1E1E1E1E1E1E1E1E1E1E1E1E1E1E1E1E1E1E1E1E1E1E1E1E1E1E1E1E1E1E1E1E1E1E1E1E1E1E1E1E1E1E1E1E1E1E1E1E1E1E1E1E1E1E1E2E1E1E1E1E1E1E1E1E1E1E1E1E1E1E1E2E1E1E1E1E1E1E1E1E1E1
310
E1E1E1E1E1E1E1E1E1E1E1E1E1E1E1E1E1E1E1E2E1E1E1E1E1E1E1E1E1E1E1E1E1E1E1E1E1E1E1E1E1E1E1E1E1E1E1E1E1E1E1E1E1E1E1E1E1E1E1E1E1E1E1E1E1E1E1E1E1E1E1E1E1E1E1E1E1E1E1E1E1E1E1E1E1E1E1E1E1E1E1E1E1E1E1E1E1E1E1E1E1E1E1E1E1E1E1E1E1E1E2E1E1E1E1E1E1E1E1E1E1E1E1E1E1E1E1
310
E1E1E1E1E1E1E1E1E1E1E1E1E1E1E1E1E1E1E1E1E1E1E1E1E1E1E1E1E1E1E1E1E1E1E1E1E1E1E1E1E1E1E1E1E1E1E1E1E1E1E1E1E1E1E1E1E1E1E1E1E1E1E1E1E1E1E1E1E1E1E1E1E1E1E1E1E1E1E1E1E1E1E1E1E1E1E1E1E1E1E1E1E1E1E1E1E1E1E1E1E1E1E2E1E1E1E1E1E1E1E1E1E1E1E1E1E1E1E2E1E1E1E1E1E1E1E1
310
E1E1E1E1E1E1E1E1E1E1E1E1E1E1E1E1E1E1E1E1E1E2E1E1E1E1E1E1E1E1E1E1E1E1E1E1E1E1E1E1E1E1E1E1E1E1E1E1E1E1E1E1E1E1E1E1E1E1E1E1E1E1E1E1E1E1E1E1E1E1E1E1E1E1E1E1E1E1E1E1E1E1E1E1E1E1E1E1E1E1E1E1E1E1E1E1E1E1E1E1E1E1E1E1E1E1E1E1E1E1E1E1E2E1E1E1E1E1E1E1E1E1E1E1E1E1E1
310
E1E1E1E1E1E1E1E1E1E1E1E1E1E1E1E1E1E1E1E1E1E1E1E1E1E1E1E1E1E1E1E1E1E1E1E1E1E1E1E1E1E1E1E1E1E1E1E1E1E1E1E1E1E1E1E1E1E1E1E1E1E1E1E1E1E1E1E1E1E1E1E1E1E1E1E1E1E1E1E1E1E1E1E1E1E1E1E1E1E1E1E1E1E1E1E1E1E1E1E1E1E1E1E1E2E1E1E1E1E1E1E1E1E1E1E1E1E1E1E1E2E1E1E1E1E1E1
310
E1E1E1E1E1E1E1E1E1E1E1E1E1E1E1E1E1E1E1E1E1E1E1E2E1E1E1E1E1E1E1E1E1E1E1E1E1E1E1E1E1E1E1E1E1E1E1E1E1E1E1E1E1E1E1E1E1E1E1E1E1E1E1E1E1E1E1E1E1E1E1E1E1E1E1E1E1E1E1E1E1E1E1E1E1E1E1E1E1E1E1E1E1E1E1E1E1E1E1E1E1E1E1E1E1E1E1E1E1E1E1E1E1E1E2E1E1E1E1E1E1E1E1E1E1E1E1
310
E1E1E1E1E1E1E1E1E1E1E1E1E1E1E1E1E1E1E1E1E1E1E1E1E1E1E1E1E1E1E1E1E1E1E1E1E1E1E1E1E1E1E1E1E1E1E1E1E1E1E1E1E1E1E1E1E1E1E1E1E1E1E1E1E1E1E1E1E1E1E1E1E1E1E1E1E1E1E1E1E1E1E1E1E1E1E1E1E1E1E1E1E1E1E1E1E1E1E1E1E1E1E1E1E1E1E2E1E1E1E1E1E1E1E1E1E1E1E1E1E1E1E2E1E1E1E1
310
E1E1E1E1E1E1E1E1E1E1E1E1E1E1E1E1E1E1E1E1E1E1E1E1E1E2E1E1E1E1E1E1E1E1E1E1E1E1E1E1E1E1E1E1E1E1E1E1E1E1E1E1E1E1E1E1E1E1E1E1E1E1E1E1E1E1E1E1E1E1E1E1E1E1E1E1E1E1E1E1E1E1E1E1E1E1E1E1E1E1E1E1E1E1E1E1E1E1E1E1E1E1E1E1E1E1E1E1E1E1E1E1E1E1E1E1E2E1E1E1E1E1E1E1E1E1E1
310
E1E1E1E1E1E1E1E1E1E1E1E1E1E1E1E1E1E1E1E1E1E1E1E1E1E1E1E1E1E1E1E1E1E1E1E1E1E1E1E1E1E1E1E1E1E1E1E1E1E1E1E1E1E1E1E1E1E1E1E1E1E1E1E1E1E1E1E1E1E1E1E1E1E1E1E1E1E1E1E1E1E1E1E1E1E1E1E1E1E1E1E1E1E1E1E1E1E1E1E1E1E1E1E1E1E1E1E1E2E1E1E1E1E1E1E1E1E1E1E1E1E1E1E1E2E1E1
310
E1E1E1E1E1E1E1E1E1E1E1E1E1E1E1E1E1E1E1E1E1E1E1E1E1E1E1E2E1E1E1E1E1E1E1E1E1E1E1E1E1E1E1E1E1E1E1E1E1E1E1E1E1E1E1E1E1E1E1E1E1E1E1E1E1E1E1E1E1E1E1E1E1E1E1E1E1E1E1E1E1E1E1E1E1E1E1E1E1E1E1E1E1E1E1E1E1E1E1E1E1E1E1E1E1E1E1E1E1E1E1E1E1E1E1E1E1E1E2E1E1E1E1E1E1E1E1
310
E1E1E1E1E1E1E1E1E1E1E1E1E1E1E1E1E1E1E1E1E1E1E1E1E1E1E1E1E1E1E1E1E1E1E1E1E1E1E1E1E1E1E1E1E1E1E1E1E1E1E1E1E1E1E1E1E1E1E1E1E1E1E1E1E1E1E1E1E1E1E1E1E1E1E1E1E1E1E1E1E1E1E1E1E1E1E1E1E1E1E1E1E1E1E1E1E1E1E1E1E1E1E1E1E1E1E1E1E1E1E2E1E1E1E1E1E1E1E1E1E1E1E1E1E1E1E2
310
E1E1E1E1E1E1E1E1E1E1E1E1E1E1E1E1E1E1E1E1E1E1E1E1E1E1E1E1E1E2E1E1E1E1E1E1E1E1E1E1E1E1E1E1E1E1E1E1E1E1E1E1E1E1E1E1E1E1E1E1E1E1E1E1E1E1E1E1E1E1E1E1E1E1E1E1E1E1E1E1E1E1E1E1E1E1E1E1E1E1E1E1E1E1E1E1E1E1E1E1E1E1E1E1E1E1E1E1E1E1E1E1E1E1E1E1E1E1E1E1E2E1E1E1E1E1E1
310
E1E1E1E1E1E1E1E1E1E1E1E1E1E1E1E1E1E1E1E1E1E1E1E1E1E1E1E1E1E1E1E1E1E1E1E1E1E1E1E1E1E1E1E1E1E1E1E1E1E1E1E1E1E1E1E1E1E1E1E1E1E1E1E1E1E1E1E1E1E1E1E1E1E1E1E1E1E1E1E1E1E1E1E1E1E1E1E1E1E1E1E1E1E1E1E1E1E1E1E1E1E1E1E1E1E1E1E1E1E1E1E1E2E1E1E1E1E1E1E1E1E1E1E1E1E1E1
310
E1E2E1E1E1E1E1E1E1E1E1E1E1E1E1E1E1E1E1E1E1E1E1E1E1E1E1E1E1E1E1E2E1E1E1E1E1E1E1E1E1E1E1E1E1E1E1E1E1E1E1E1E1E1E1E1E1E1E1E1E1E1E1E1E1E1E1E1E1E1E1E1E1E1E1E1E1E1E1E1E1E1E1E1E1E1E1E1E1E1E1E1E1E1E1E1E1E1E1E1E1E1E1E1E1E1E1E1E1E1E1E1E1E1E1E1E1E1E1E1E1E1E2E1E1E1E1
310
E1E1E1E1E1E1E1E1E1E1E1E1E1E1E1E1E1E1E1E1E1E1E1E1E1E1E1E1E1E1E1E1E1E1E1E1E1E1E1E1E1E1E1E1E1E1E1E1E1E1E1E1E1E1E1E1E1E1E1E1E1E1E1E1E1E1E1E1E1E1E1E1E1E1E1E1E1E1E1E1E1E1E1E1E1E1E1E1E1E1E1E1E1E1E1E1E1E1E1E1E1E1E1E1E1E1E1E1E1E1E1E1E1E1E2E1E1E1E1E1E1E1E1E1E1E1E1
310
E1E1E1E2E1E1E1E1E1E1E1E1E1E1E1E1E1E1E1E1E1E1E1E1E1E1E1E1E1E1E1E1E1E2E1E1E1E1E1E1E1E1E1E1E1E1E1E1E1E1E1E1E1E1E1E1E1E1E1E1E1E1E1E1E1E1E1E1E1E1E1E1E1E1E1E1E1E1E1E1E1E1E1E1E1E1E1E1E1E1E1E1E1E1E1E1E1E1E1E1E1E1E1E1E1E1E1E1E1E1E1E1E1E1E1E1E1E1E1E1E1E1E1E1E2E1E1
310
E1E1E1E1E1E1E1E1E1E1E1E1E1E1E1E1E1E1E1E1E1E1E1E1E1E1E1E1E1E1E1E1E1E1E1E1E1E1E1E1E1E1E1E1E1E1E1E1E1E1E1E1E1E1E1E1E1E1E1E1E1E1E1E1E1E1E1E1E1E1E1E1E1E1E1E1E1E1E1E1E1E1E1E1E1E1E1E1E1E1E1E1E1E1E1E1E1E1E1E1E1E1E1E1E1E1E1E1E1E1E1E1E1E1E1E1E2E1E1E1E1E1E1E1E1E1E1
310
E1E1E1E1E1E2E1E1E1E1E1E1E1E1E1E1E1E1E1E1E1E1E1E1E1E1E1E1E1E1E1E1E1E1E1E2E1E1E1E1E1E1E1E1E1E1E1E1E1E1E1E1E1E1E1E1E1E1E1E1E1E1E1E1E1E1E1E1E1E1E1E1E1E1E1E1E1E1E1E1E1E1E1E1E1E1E1E1E1E1E1E1E1E1E1E1E1E1E1E1E1E1E1E1E1E1E1E1E1E1E1E1E1E1E1E1E1E1E1E1E1E1E1E1E1E1E2
310
E1E1E1E1E1E1E1E1E1E1E1E1E1E1E1E1E1E1E1E1E1E1E1E1E1E1E1E1E1E1E1E1E1E1E1E1E1E1E1E1E1E1E1E1E1E1E1E1E1E1E1E1E1E1E1E1E1E1E1E1E1E1E1E1E1E1E1E1E1E1E1E1E1E1E1E1E1E1E1E1E1E1E1E1E1E1E1E1E1E1E1E1E1E1E1E1E1E1E1E1E1E1E1E1E1E1E1E1E1E1E1E1E1E1E1E1E1E1E2E1E1E1E1E1E1E1E1
310
E1E1E1E1E1E1E1E2E1E1E1E1E1E1E1E1E1E1E1E1E1E1E1E1E1E1E1E1E1E1E1E1E1E1E1E1E1E2E1E1E1E1E1E1E1E1E1E1E1E1E1E1E1E1E1E1E1E1E1E1E1E1E1E1E1E1E1E1E1E1E1E1E1E1E1E1E1E1E1E1E1E1E1E1E1E1E1E1E1E1E1E1E1E1E1E1E1E1E1E1E1E1E1E1E1E1E1E1E1E1E1E1E1E1E1E1E1E1E1E1E1E1E1E1E1E1E1
310
E1E2E1E1E1E1E1E1E1E1E1E1E1E1E1E1E1E1E1E1E1E1E1E1E1E1E1E1E1E1E1E1E1E1E1E1E1E1E1E1E1E1E1E1E1E1E1E1E1E1E1E1E1E1E1E1E1E1E1E1E1E1E1E1E1E1E1E1E1E1E1E1E1E1E1E1E1E1E1E1E1E1E1E1E1E1E1E1E1E1E1E1E1E1E1E1E1E1E1E1E1E1E1E1E1E1E1E1E1E1E1E1E1E1E1E1E1E1E1E1E2E1E1E1E1E1E1
310
E1E1E1E1E1E1E1E1E1E2E1E2E2E2E2E2E2E2E2E2E1E1E1E1E1E1E1E1E1E1E1E1E1E1E1E1E1E1E1E2E1E1E2E2E2E2E2E1E1E1E1E1E1E1E1E1E1E1E1E1E1E1E1E1E1E1E1E1E1E1E1E1E1E1E1E1E1E1E1E1E1E1E1E1E1E1E1E1E1E1E1E1E1E1E1E1E1E1E1E1E1E1E1E1E1E1E1E1E1E1E1E1E1E1E1E1E1E1E1E1E1E1E1E1E1E1E1
310
E1E1E1E2E1E1E1E1E1E1E1E1E1E1E1E1E1E1E1E1E1E1E1E1E1E1E1E1E1E1E1E1E1E1E1E1E1E1E1E1E1E1E1E1E1E1E1E1E1E1E1E1E1E1E1E1E1E1E1E1E1E1E1E1E1E1E1E1E1E1E1E1E1E1E1E1E1E1E1E1E1E1E1E1E1E1E1E1E1E1E1E1E1E1E1E1E1E1E1E1E1E1E1E1E1E1E1E1E1E1E1E1E1E1E1E1E1E1E1E1E1E1E2E1E1E1E1
310
E1E1E1E1E1E1E1E1E1E1E1E2E1E2E2E2E2E2E2E2E2E2E1E1E1E1E1E1E1E1E1E1E1E1E1E1E1E1E1E1E1E2E1E1E2E2E2E2E2E1E1E1E1E1E1E1E1E1E1E1E1E1E1E1E1E1E1E1E1E1E1E1E1E1E1E1E1E1E1E1E1E1E1E1E1E1E1E1E1E1E1E1E1E1E1E1E1E1E1E1E1E1E1E1E1E1E1E1E1E1E1E1E1E1E1E1E1E1E1E1E1E1E1E1E1E1E1
310
E1E1E1E1E1E2E1E1E1E1E1E1E1E1E1E1E1E1E1E1E1E1E1E1E1E1E1E1E1E1E1E1E1E1E1E1E1E1E1E1E1E1E1E1E1E1E1E1E1E1E1E1E1E1E1E1E1E1E1E1E1E1E1E1E1E1E1E1E1E1E1E1E1E1E1E1E1E1E1E1E1E1E1E1E1E1E1E1E1E1E1E1E1E1E1E1E1E1E1E1E1E1E1E1E1E1E1E1E1E1E1E1E1E1E1E1E1E1E1E1E1E1E1E1E2E1E1
310
E1E1E1E1E1E1E1E1E1E1E1E1E1E2E1E1E1E1E1E1E1E1E1E1E1E1E1E1E1E1E1E1E1E1E1E1E1E1E1E1E1E1E1E2E1E1E1E1E1E1E1E1E1E1E1E1E1E1E1E1E1E1E1E1E1E1E1E1E1E1E1E1E1E1E1E1E1E1E1E1E1E1E1E1E1E1E1E1E1E1E1E1E1E1E1E1E1E1E1E1E1E1E1E1E1E1E1E1E1E1E1E1E1E1E1E1E1E1E1E1E1E1E1E1E1E1E1
310
E1E1E1E1E1E1E1E2E1E1E1E1E1E1E1E1E1E1E1E1E1E1E1E1E1E1E1E1E1E1E1E1E1E1E1E1E1E1E1E1E1E1E1E1E1E1E1E1E1E1E1E1E1E1E1E1E1E1E1E1E1E1E1E1E1E1E1E1E1E1E1E1E2E2E2E2E2E2E2E2E2E2E2E2E2E2E2E2E2E2E2E2E2E2E2E2E2E2E2E2E2E2E2E2E2E2E2E2E2E2E2E2E2E2E2E2E2E2E2E2E2E2E2E2E2E2E2
310
E1E1E1E1E1E1E1E1E1E1E1E1E1E1E1E2E2E2E2E2E2E2E2E2E2E2E2E2E2E2E2E2E2E2E2E2E2E2E2E2E2E2E2E2E2E2E2E2E2E2E2E2E2E2E2E2E2E2E2E2E2E2E2E2E2E2E2E2E2E2E2E2E2E2E2E2E2E2E2E2E2E2E2E2E2E2E2E2E2E2E2E2E2E2E2E2E2E2E2E2E2E2E2E2E2E2E2E2E2E2E2E2E2E2E2E2E2E2E2E2E2E2E2E2E2E2E2
310
E2E2E2E2E2E2E2E2E2E2E1E1E1E1E1E1E1E1E1E1E1E1E1E1E1E1E1E1E1E1E1E1E1E1E1E1E1E1E1E1E1E1E1E1E1E1E1E1E1E1E1E1E1E1E1E1E1E1E1E1E1E1E1E1E1E1E1E1E1E1E1E1E1E1E1E1E1E1E1E1E1E1E1E1E1E1E1E1E1E1E1E1E1E1E1E1E1E1E1E1E1E1E1E1E1E1E1E1E1E1E1E1E1E1E1E1E1E1E1E1E1E1E1E1E1E1E1
310
E1E2E1E1E1E1E1E1E1E1E1E1E1E1E1E1E1E2E1E1E1E1E1E1E1E1E1E1E1E1E1E1E1E1E1E1E1E1E1E1E1E1E1E1E1E1E1E2E1E1E1E1E1E1E1E1E1E1E1E1E1E1E1E1E1E1E1E1E1E1E1E1E1E1E1E1E1E1E1E1E1E1E1E1E1E1E1E1E1E1E1E1E1E1E1E1E1E1E1E1E1E1E1E1E1E1E1E1E1E1E1E1E1E1E1E1E1E1E1E1E1E1E1E1E1E1E1
310
E1E1E1E1E1E1E1E1E1E1E1E2E1E1E1E1E1E1E1E1E1E1E1E1E1E1E1E1E1E1E1E1E1E1E1E1E1E1E1E1E1E1E1E1E1E1E1E1E1E1E1E1E1E1E1E1E1E1E1E1E1E1E1E1E1E1E1E1E1E1E1E1E1E1E1E1E1E1E1E1E1E1E1E1E1E1E1E1E1E1E1E1E1E1E1E1E1E1E1E1E1E1E1E1E1E1E1E1E1E1E1E1E1E1E1E1E1E1E1E1E1E1E1E1E1E1E1
310
E1E1E1E2E1E1E1E1E1E1E1E1E1E1E1E1E1E1E1E2E1E1E1E1E1E1E2E1E1E1E2E2E2E2E2E2E2E2E2E2E2E2E2E2E2E2E1E1E1E2E1E1E1E1E1E1E1E1E2E1E1E1E1E1E1E1E1E1E1E1E1E1E1E1E1E1E1E1E1E1E1E1E1E1E1E1E1E1E1E1E1E1E1E1E1E1E1E1E1E1E1E1E1E1E1E1E1E1E1E1E1E1E1E1E1E1E1E1E1E1E1E1E1E1E1E1E1
310
E1E1E1E1E1E1E1E1E1E1E1E1E1E2E1E1E1E1E1E1E1E1E1E1E1E1E1E1E1E1E1E1E1E1E1E1E1E1E1E1E1E1E1E1E1E1E1E1E1E1E1E1E1E1E1E1E1E1E1E1E1E1E1E1E1E1E1E1E1E1E1E1E1E1E1E1E1E1E1E1E1E1E1E1E1E1E1E1E1E1E1E1E1E1E1E1E1E1E1E1E1E1E1E1E1E1E1E1E1E1E1E1E1E1E1E1E1E1E1E1E1E1E1E1E1E1E1
310
E1E1E1E1E1E2E1E1E1E1E1E1E1E1E1E1E1E1E1E1E1E2E1E2E2E2E2E2E2E2E2E1E2E2E2E2E2E2E2E2E2E2E2E2E2E2E2E2E1E1E1E2E1E2E2E2E2E2E2E1E2E2E2E2E2E2E1E2E2E2E2E2E2E2E2E1E2E2E2E2E2E2E2E2E2E2E2E1E1E1E1E1E1E1E1E1E1E1E1E1E1E1E1E1E1E1E1E1E1E1E1E1E1E1E1E1E1E1E1E1E1E1E1E1E1E1E1
310
E1E1E1E1E1E1E1E1E1E1E1E1E1E1E1E2E1E1E1E1E1E1E1E1E1E1E1E1E1E1E1E1E1E1E1E1E1E1E1E1E1E1E1E1E1E1E1E1E1E1E1E1E1E1E1E1E1E1E1E1E1E1E1E1E1E1E1E1E1E1E1E1E1E1E1E1E1E1E1E1E1E1E1E1E1E1E1E1E1E1E1E1E1E1E1E1E1E1E1E1E1E1E1E1E1E1E1E1E1E1E1E1E1E1E1E1E1E1E1E1E1E1E1E1E1E1E1
310
E1E1E1E1E1E1E1E2E1E1E1E1E1E1E1E1E1E1E1E1E1E1E1E2E1E2E2E2E2E2E2E2E2E1E2E2E2E2E2E2E2E2E2E2E2E2E2E2E2E2E1E1E1E2E1E2E2E2E2E2E2E2E2E2E2E2E2E2E1E2E2E2E2E2E2E2E2E1E2E2E1E2E2E2E1E2E2E1E2E1E1E1E1E1E1E1E1E1E1E1E1E1E1E1E1E1E1E1E1E1E1E1E1E1E1E1E1E1E1E1E1E1E1E1E1E1E1
310
E1E1E1E1E1E1E1E1E1E1E1E1E1E1E1E1E1E2E1E1E1E1E1E1E1E1E1E1E1E1E1E1E1E1E1E1E1E1E1E1E1E1E1E1E1E1E1E1E1E1E1E1E1E1E1E1E1E1E1E1E1E1E1E1E1E1E1E1E1E1E1E1E1E1E1E1E1E1E1E1E1E1E1E1E1E1E1E1E1E1E1E1E1E1E1E1E1E1E1E1E1E1E1E1E1E1E1E1E1E1E1E1E1E1E1E1E1E1E1E1E1E1E1E1E1E1E1
310
E1E1E1E1E1E1E1E1E1E2E1E1E1E1E1E1E1E1E1E1E1E1E1E1E1E2E1E2E2E2E2E2E1E1E1E1E1E1E1E1E1E1E1E1E1E1E1E1E1E1E1E1E1E1E1E2E1E2E1E1E1E1E1E1E2E1E1E2E2E1E1E2E1E1E1E2E2E1E1E1E2E2E2E2E2E2E1E2E2E2E2E1E1E1E1E1E1E1E1E1E1E1E1E1E1E1E1E1E1E1E1E1E1E1E1E1E1E1E1E1E1E1E1E1E1E1E1
310
E1E1E1E1E1E1E1E1E1E1E1E1E1E1E1E1E1E1E1E2E1E1E1E1E1E1E1E1E1E1E1E1E1E1E1E1E1E1E1E1E1E1E1E1E1E1E1E1E1E1E1E1E1E1E1E1E1E1E1E1E1E1E1E1E1E1E1E1E1E1E1E1E1E1E1E1E1E1E1E1E1E1E1E1E1E1E1E1E1E1E1E1E1E1E1E1E1E1E1E1E1E1E1E1E1E1E1E1E1E1E1E1E1E1E1E1E1E1E1E1E1E1E1E1E1E1E1
310
E1E1E1E1E1E1E1E1E1E1E1E2E1E1E1E1E1E1E1E1E1E1E1E1E1E1E1E2E1E1E1E1E1E1E1E1E1E1E1E1E1E1E1E1E1E1E1E1E1E1E1E1E1E1E1E1E1E2E1E1E1E1E1E1E1E1E1E1E1E1E1E1E1E1E1E1E1E1E1E1E1E1E1E1E1E1E1E1E1E1E1E1E1E1E1E1E1E1E1E1E1E1E1E1E1E1E1E1E1E1E1E1E1E1E1E1E1E1E1E1E1E1E1E1E1E1E1
310
E1E1E1E1E1E1E1E1E1E1E1E1E1E1E1E1E1E1E1E1E1E2E1E1E1E1E1E1E1E1E1E1E1E1E1E1E1E1E1E1E1E1E1E1E1E1E1E1E1E1E1E1E1E1E1E1E1E1E1E1E1E1E1E1E1E1E1E1E1E1E1E1E1E1E1E1E1E1E1E1E1E1E1E1E1E1E1E1E1E1E1E1E1E1E1E1E1E1E1E1E1E1E1E1E1E1E1E1E1E1E1E1E1E1E1E1E1E1E1E1E1E1E1E1E1E1E1
310
E1E1E1E1E1E1E1E1E1E1E1E1E1E2E1E1E1E1E1E1E1E1E1E1E1E1E1E1E1E2E1E1E1E1E1E1E1E1E1E1E1E1E1E1E1E1E1E1E1E1E1E1E1E1E1E1E1E1E1E2E1E1E1E1E1E1E1E1E1E1E1E1E1E1E1E1E1E1E1E1E1E1E1E1E1E1E1E1E1E1E1E1E1E1E1E1E1E1E1E1E1E1E1E1E1E1E1E1E1E1E1E1E1E1E1E1E1E1E1E1E1E1E1E1E1E1E1
310
E1E1E1E1E1E1E1E1E1E1E1E1E1E1E1E1E1E1E1E1E1E1E1E2E1E1E1E1E1E1E1E1E1E1E1E1E1E1E1E1E1E1E1E1E1E1E1E1E1E1E1E1E1E1E1E1E1E1E1E1E1E1E1E1E1E1E1E1E1E1E1E1E1E1E1E1E1E1E1E1E1E1E1E1E1E1E1E1E2E2E2E2E2E2E2E2E2E2E2E2E2E2E2E2E2E2E2E2E2E2E2E2E2E2E2E2E2E2E2E2E2E2E2E2E2E2E2
310
E2E2E2E2E2E2E2E2E2E2E2E2E2E2E2E2E1E1E1E1E1E1E1E1E1E1E1E1E1E1E1E2E2E2E2E2E2E2E2E2E2E2E2E2E2E2E2E2E2E2E2E2E2E2E2E2E2E2E2E2E2E2E2E2E2E2E2E2E2E2E2E2E2E2E2E2E2E2E2E2E2E2E2E2E2E2E2E2E2E2E2E2E2E2E2E2E2E2E2E2E2E2E2E2E2E2E2E2E2E2E2E2E2E2E2E2E2E2E2E2E2E2E2E2E2E2E2
310
E2E2E2E2E2E2E2E2E2E2E2E2E2E2E2E2E2E2E2E2E2E2E2E2E2E2E1E1E1E1E1E1E1E1E1E1E1E1E1E1E1E1E1E1E1E1E1E1E1E1E1E1E1E1E1E1E1E1E1E1E1E1E1E1E1E1E1E1E1E1E1E1E1E1E1E1E1E1E1E1E1E1E1E1E1E1E1E1E1E1E1E1E1E1E1E1E1E1E1E1E1E1E1E1E1E1E1E1E1E1E1E1E1E1E1E1E1E1E1E1E1E1E1E1E1E1E1
310
E1E1E1E1E1E1E1E1E1E1E1E1E1E1E1E1E1E2E1E1E1E1E1E1E1E1E1E1E1E1E1E1E1E2E1E1E1E1E1E1E1E1E1E1E1E1E1E1E1E1E1E1E1E1E1E1E1E1E1E1E1E1E1E2E1E1E1E1E1E1E1E1E1E1E1E1E1E1E1E1E1E1E1E1E1E1E1E1E1E1E1E1E1E1E1E1E1E1E1E1E1E1E1E1E1E1E1E1E1E1E1E1E1E1E1E1E1E1E1E1E1E1E1E1E1E1E1
310
E1E1E1E1E1E1E1E1E1E1E1E1E1E1E1E1E1E1E1E1E1E1E1E1E1E1E1E2E1E1E1E1E1E1E1E1E1E1E1E1E1E1E1E1E1E1E1E1E1E1E1E1E1E1E1E1E1E1E1E1E1E1E1E1E1E1E1E1E1E1E1E1E1E1E1E1E1E1E1E1E1E1E1E1E1E1E1E1E1E1E1E1E1E1E1E1E1E1E1E1E1E1E1E1E1E1E1E1E1E1E1E1E1E1E1E1E1E1E1E1E1E1E1E1E1E1E1
310
E1E1E1E1E1E1E1E1E1E1E1E1E1E1E1E1E1E1E1E2E1E1E1E1E1E1E1E1E1E1E1E1E1E1E1E2E1E1E1E1E1E1E1E1E1E1E1E1E1E1E1E1E1E1E1E1E1E1E1E1E1E1E1E1E1E2E1E1E1E1E1E1E1E1E1E1E1E1E1E1E1E1E1E1E1E1E1E1E1E1E1E1E1E1E1E1E1E1E1E1E1E1E1E1E1E1E1E1E1E1E1E1E1E1E1E1E1E1E1E1E1E1E1E1E1E1E1
310
E1E1E1E1E1E1E1E1E1E1E1E1E1E1E1E1E1E1E1E1E1E1E1E1E1E1E1E1E1E2E1E1E1E1E1E1E1E1E1E1E1E1E1E1E1E1E1E1E1E1E1E1E1E1E1E1E1E1E1E1E1E1E1E1E1E1E1E1E1E1E1E1E1E1E1E1E1E1E1E1E1E1E1E1E1E1E1E1E1E1E1E1E1E1E1E1E1E1E1E1E1E1E1E1E1E1E1E1E1E1E1E1E1E1E1E1E1E1E1E1E1E1E1E1E1E1E1
310
E1E1E1E1E1E1E1E1E1E1E1E1E1E1E1E1E1E1E1E1E1E2E1E1E1E1E1E1E1E1E1E1E1E1E1E1E1E2E1E1E1E1E1E1E1E1E1E1E1E1E1E1E1E1E1E1E1E1E1E1E1E1E1E1E1E1E1E2E1E1E1E1E1E1E1E1E1E1E1E1E1E1E1E1E1E1E1E1E1E1E1E1E1E1E1E1E1E1E1E1E1E1E1E1E1E1E1E1E1E1E1E1E1E1E1E1E1E1E1E1E1E1E1E1E1E1E1
310
E1E1E1E1E1E1E1E1E1E1E1E1E1E1E1E1E1E1E1E1E1E1E1E1E1E1E1E1E1E1E1E2E1E1E1E1E1E1E1E1E1E1E1E1E1E1E1E1E1E1E1E1E1E1E1E1E1E1E1E1E1E1E1E1E1E1E1E1E1E1E1E1E1E1E1E1E1E1E1E1E1E1E1E1E1E1E1E1E1E1E1E1E1E1E1E1E1E1E1E1E1E1E1E1E1E1E1E1E1E1E1E1E1E1E1E1E1E1E1E1E1E1E1E1E1E1E1
310
E1E1E1E1E1E1E1E1E1E1E1E1E1E1E1E1E1E1E1E1E1E1E1E2E1E1E1E1E1E1E1E1E1E1E1E1E1E1E1E2E1E1E1E1E1E1E1E1E1E1E1E1E1E1E1E1E1E1E1E1E1E1E1E1E1E1E1E1E1E2E1E1E1E1E1E1E1E1E1E1E1E1E1E1E1E1E1E1E1E1E1E1E1E1E1E1E1E1E1E1E1E1E1E1E1E1E1E1E1E1E1E1E1E1E1E1E1E1E1E1E1E1E1E1E1E1E1
310
E1E1E1E1E1E1E1E1E1E1E1E1E1E1E1E1E1E1E1E1E1E1E1E1E1E1E1E1E1E1E1E1E1E2E1E1E1E1E1E1E1E1E1E1E1E1E1E1E1E1E1E1E1E1E1E1E1E1E1E1E1E1E1E1E1E1E1E1E1E1E1E1E1E1E1E1E1E1E1E1E1E1E1E1E1E1E1E1E1E1E1E1E1E1E1E1E1E1E1E1E1E1E1E1E1E1E1E1E1E1E1E1E1E1E1E1E1E1E1E1E1E1E1E1E1E1E1
310
E1E1E1E1E1E1E1E1E1E1E1E1E1E1E1E1E1E1E1E1E1E1E1E1E1E2E1E1E1E1E1E1E1E1E1E1E1E1E1E1E1E2E1E1E1E1E1E1E1E1E1E1E1E1E1E1E1E1E1E1E1E1E1E1E1E1E1E1E1E1E1E2E1E1E1E1E1E1E1E1E1E1E1E1E1E1E1E1E1E1E1E1E1E1E1E1E1E1E1E1E1E1E1E1E1E1E1E1E1E1E1E1E1E1E1E1E1E1E1E1E1E1E1E1E1E1E1
310
E1E1E1E1E1E1E1E1E1E1E1E1E1E1E1E1E1E1E1E1E1E1E1E1E1E1E1E1E1E1E1E1E1E1E1E2E1E1E1E1E1E1E1E1E1E1E1E1E1E1E1E1E1E1E1E1E1E1E1E1E1E1E1E1E1E1E1E1E1E1E1E1E1E1E1E1E1E1E1E1E1E1E1E1E1E1E1E1E1E1E1E1E1E1E1E1E1E1E1E1E1E1E1E1E1E1E1E1E1E1E1E1E1E1E1E1E1E1E1E1E1E1E1E1E1E1E1
310
E1E1E1E1E1E1E1E1E1E1E1E1E1E1E1E1E1E1E1E1E1E1E1E1E1E1E1E2E1E1E1E1E1E1E1E1E1E1E1E1E1E1E1E2E1E1E1E1E1E1E1E1E1E1E1E1E1E1E1E1E1E1E1E1E1E1E1E1E1E1E1E1E1E2E1E1E1E1E1E1E1E1E1E1E1E1E1E1E1E1E1E1E1E1E1E1E1E1E1E1E1E1E1E1E1E1E1E1E1E1E1E1E1E1E1E1E1E1E1E1E1E1E1E1E1E1E1
310
E1E1E1E1E1E1E1E1E1E1E1E1E1E1E1E1E1E1E1E1E1E1E1E1E1E1E1E1E1E1E1E1E1E1E1E1E1E2E1E1E1E1E1E1E1E1E1E1E1E1E1E1E1E1E1E1E1E1E1E1E1E1E1E1E1E1E1E1E1E1E1E1E1E1E1E1E1E1E1E1E1E1E1E1E1E1E1E1E1E1E1E1E1E1E1E1E1E1E1E1E1E1E1E1E1E1E1E1E1E1E1E1E1E1E1E1E1E1E1E1E1E1E1E1E1E1E1
310
E1E1E1E1E1E1E1E1E1E1E1E1E1E1E1E1E1E1E1E1E1E1E1E1E1E1E1E1E1E2E1E1E1E1E1E1E1E1E1E1E1E1E1E1E1E2E1E1E1E1E1E1E1E1E1E1E1E1E1E1E1E1E1E1E1E1E1E1E1E1E1E1E1E1E1E2E1E1E1E1E1E1E1E1E1E1E1E1E1E1E1E1E1E1E1E1E1E1E1E1E1E1E1E1E1E1E1E1E1E1E1E1E1E1E1E1E1E1E1E1E1E1E1E1E1E1E1
310
E1E1E1E1E1E1E1E1E1E1E1E1E1E1E1E1E1E1E1E1E1E1E1E1E1E1E1E1E1E1E1E1E1E1E1E1E1E1E1E2E1E1E1E1E1E1E1E1E1E1E1E1E1E1E1E1E1E1E1E1E1E1E1E1E1E1E1E1E1E1E1E1E1E1E1E1E1E1E1E1E1E1E1E1E1E1E1E1E1E1E1E1E1E1E1E1E1E1E1E1E1E1E1E1E1E1E1E1E1E1E1E1E1E1E1E1E1E1E1E1E1E1E1E1E1E1E1
310
E1E1E1E1E1E1E1E1E1E1E1E1E1E1E1E1E1E1E1E1E1E1E1E1E1E1E1E1E1E1E1E2E1E1E1E1E1E1E1E1E1E1E1E1E1E1E1E2E1E1E1E1E1E1E1E1E1E1E1E1E1E1E1E1E1E1E1E1E1E1E1E1E1E1E1E1E1E2E1E1E1E1E1E1E1E1E1E1E1E1E1E1E1E1E1E1E1E1E1E1E1E1E1E1E1E1E1E1E1E1E1E1E1E1E1E1E1E1E1E1E1E1E1E1E1E1E1
310
E1E1E1E1E1E1E1E1E1E1E1E1E1E1E1E1E1E1E1E1E1E1E1E1E1E1E1E1E1E1E1E1E1E1E1E1E1E1E1E1E1E2E1E1E1E1E1E1E1E1E1E1E1E1E1E1E1E1E1E1E1E1E1E1E1E1E1E1E1E1E1E1E1E1E1E1E1E1E1E1E1E1E1E1E1E1E1E1E1E1E1E1E1E1E1E1E1E1E1E1E1E1E1E1E1E1E1E1E1E1E1E1E1E1E1E1E1E1E1E1E1E1E1E1E1E1E1
310
E1E1E1E1E1E1E1E1E1E1E1E1E1E1E1E1E1E1E1E1E1E1E1E1E1E1E1E1E1E1E1E1E1E2E1E1E1E1E1E1E1E1E1E1E1E1E1E1E1E2E1E1E1E1E1E1E1E1E1E1E1E1E1E1E1E1E1E1E1E1E1E1E1E1E1E1E1E1E1E2E1E1E1E1E1E1E1E1E1E1E1E1E1E1E1E1E1E1E1E1E1E1E1E1E1E1E1E1E1E1E1E1E1E1E1E1E1E1E1E1E1E1E1E1E1E1E1
310
E1E1E1E1E1E1E1E1E1E1E1E1E1E1E1E1E1E1E1E1E1E1E1E1E1E1E1E1E1E1E1E1E1E1E1E1E1E1E1E1E1E1E1E2E1E1E1E1E1E1E1E1E1E1E1E1E1E1E1E1E1E1E1E1E1E1E1E1E1E1E1E1E1E1E1E1E1E1E1E1E1E1E1E1E1E1E1E1E1E1E1E1E1E1E1E1E1E1E1E1E1E1E1E1E1E1E1E1E1E1E1E1E1E1E1E1E1E1E1E1E1E1E1E1E1E1E1
310
E1E1E1E1E1E1E1E1E1E1E1E1E1E1E1E1E1E1E1E1E1E1E1E1E1E1E1E1E1E1E1E1E1E1E1E2E1E1E1E1E1E1E1E1E1E1E1E1E1E1E1E2E1E1E1E1E1E1E1E1E1E1E1E1E1E1E1E1E1E1E1E1E1E1E1E1E1E1E1E1E1E2E1E1E1E1E1E1E1E1E1E1E1E1E1E1E1E1E1E1E1E1E1E1E1E1E1E1E1E1E1E1E1E1E1E1E1E1E1E1E1E1E1E1E1E1E1
310
E1E1E1E1E1E1E1E1E1E1E1E1E1E1E1E1E1E1E1E1E1E1E1E1E1E1E1E1E1E1E1E1E1E1E1E1E1E1E1E1E1E1E1E1E1E2E1E1E1E1E1E1E1E1E1E1E1E1E1E1E1E1E1E1E1E1E1E1E1E1E1E1E1E1E1E1E1E1E1E1E1E1E1E1E1E1E1E1E1E1E1E1E1E1E1E1E1E1E1E1E1E1E1E1E1E1E1E1E1E1E1E1E1E1E1E1E1E1E1E1E1E1E1E1E1E1E1
310
E1E1E1E1E1E1E1E1E1E1E1E1E1E1E1E1E1E1E1E1E1E1E1E1E1E1E1E1E1E1E1E1E1E1E1E1E1E2E1E1E1E1E1E1E1E1E1E1E1E1E1E1E1E2E1E1E1E1E1E1E1E1E1E1E1E1E1E1E1E1E1E1E1E1E1E1E1E1E1E1E1E1E1E2E1E1E1E1E1E1E1E1E1E1E1E1E1E1E1E1E1E1E1E1E1E1E1E1E1E1E1E1E1E1E1E1E1E1E1E1E1E1E1E1E1E1E1
310
E1E1E1E1E1E1E1E1E1E1E1E1E1E1E1E1E1E1E1E1E1E1E1E1E1E1E1E1E1E1E1E1E1E1E1E1E1E1E1E1E1E1E1E1E1E1E1E2E1E1E1E1E1E1E1E1E1E1E1E1E1E1E1E1E1E1E1E1E1E1E1E1E1E1E1E1E1E1E1E1E1E1E1E1E1E1E1E1E1E1E1E1E1E1E1E1E1E1E1E1E1E1E1E1E1E1E1E1E1E1E1E1E1E1E1E1E1E1E1E1E1E1E1E1E1E1E1
310
E1E1E1E1E1E1E1E1E1E1E1E1E1E1E1E1E1E1E1E1E1E1E1E1E1E1E1E1E1E1E1E1E1E1E1E1E1E1E1E2E1E1E1E1E1E1E1E1E1E1E1E1E1E1E1E2E1E1E1E1E1E1E1E1E1E1E1E1E1E1E1E1E1E1E1E1E1E1E1E1E1E1E1E1E1E2E1E1E1E1E1E1E1E1E1E1E1E1E1E1E1E1E1E1E1E1E1E1E1E1E1E1E1E1E1E1E1E1E1E1E1E1E1E1E1E1E1
310
E1E1E1E1E1E1E1E1E1E1E1E1E1E1E1E1E1E1E1E1E1E1E1E1E1E1E1E1E1E1E1E1E1E1E1E1E1E1E1E1E1E1E1E1E1E1E1E1E1E2E1E1E1E1E1E1E1E1E1E1E1E1E1E1E1E1E1E1E1E1E1E1E1E1E1E1E1E1E1E1E1E1E1E1E1E1E1E1E1E1E1E1E1E1E1E1E1E1E1E1E1E1E1E1E1E1E1E1E1E1E1E1E1E1E1E1E1E1E1E1E1E1E1E1E1E1E1
310
E1E1E1E1E1E1E1E1E1E1E1E1E1E1E1E1E1E1E1E1E1E1E1E1E1E1E1E1E1E1E1E1E1E1E1E1E1E1E1E1E1E2E1E1E1E1E1E1E1E1E1E1E1E1E1E1E1E2E1E1E1E1E1E1E1E1E1E1E1E1E1E1E1E1E1E1E1E1E1E1E1E1E1E1E1E1E1E2E1E1E1E1E1E1E1E1E1E1E1E1E1E1E1E1E1E1E1E1E1E1E1E1E1E1E1E1E1E1E1E1E1E1E1E1E1E1E1
310
E1E1E1E1E1E1E1E1E1E1E1E1E1E1E1E1E1E1E1E1E1E1E1E1E1E1E1E1E1E1E1E1E1E1E1E1E1E1E1E1E1E1E1E1E1E1E1E1E1E1E1E2E1E1E1E1E1E1E1E1E1E1E1E1E1E1E1E1E1E1E1E1E1E1E1E1E1E1E1E1E1E1E1E1E1E1E1E1E1E1E1E1E1E1E1E1E1E1E1E1E1E1E1E1E1E1E1E1E1E1E1E1E1E1E1E1E1E1E1E1E1E1E1E1E1E1E1
310
E1E1E1E1E1E1E1E1E1E1E1E1E1E1E1E1E1E1E1E1E1E1E1E1E1E1E1E1E1E1E1E1E1E1E1E1E1E1E1E1E1E1E1E2E1E1E1E1E1E1E1E1E1E1E1E1E1E1E1E2E1E1E1E1E1E1E1E1E1E1E1E1E1E1E1E1E1E1E1E1E1E1E1E1E1E1E1E1E1E2E1E1E1E1E1E1E1E1E1E1E1E1E1E1E1E1E1E1E1E1E1E1E1E1E1E1E1E1E1E1E1E1E1E1E1E1E1
310
E1E1E1E1E1E1E1E1E1E1E1E1E1E1E1E1E1E1E1E1E1E1E1E1E1E1E1E1E1E1E1E1E1E1E1E1E1E1E1E1E1E1E1E1E1E1E1E1E1E1E1E1E1E2E1E1E1E1E1E1E1E1E1E1E1E1E1E1E1E1E1E1E1E1E1E1E1E1E1E1E1E1E1E1E1E1E1E1E1E1E1E1E1E1E1E1E1E1E1E1E1E1E1E1E1E1E1E1E1E1E1E1E1E1E1E1E1E1E1E1E1E1E1E1E1E1E1
310
E1E1E1E1E1E1E1E1E1E1E1E1E1E1E1E1E1E1E1E1E1E1E1E1E1E1E1E1E1E1E1E1E1E1E1E1E1E1E1E1E1E1E1E1E1E2E1E1E1E1E1E1E1E1E1E1E1E1E1E1E1E2E1E1E1E1E1E1E1E1E1E1E1E1E1E1E1E1E1E1E1E1E1E1E1E1E1E1E1E1E1E2E1E1E1E1E1E1E1E1E1E1E1E1E1E1E1E1E1E1E1E1E1E1E1E1E1E1E1E1E1E1E1E1E1E1E1
310
E1E1E1E1E1E1E1E1E1E1E1E1E1E1E1E1E1E1E1E1E1E1E1E1E1E1E1E1E1E1E1E1E1E1E1E1E1E1E1E1E1E1E1E1E1E1E1E1E1E1E1E1E1E1E1E2E1E1E1E1E1E1E1E1E1E1E1E1E1E1E1E1E1E1E1E1E1E1E1E1E1E1E1E1E1E1E1E1E1E1E1E1E1E1E1E1E1E1E1E1E1E1E1E1E1E1E1E1E1E1E1E1E1E1E1E1E1E1E1E1E1E1E1E1E1E1E1
310
E1E1E1E1E1E1E1E1E1E1E1E1E1E1E1E1E1E1E1E1E1E1E1E1E1E1E1E1E1E1E1E1E1E1E1E1E1E1E1E1E1E1E1E1E1E1E1E2E1E1E1E1E1E1E1E1E1E1E1E1E1E1E1E2E1E1E1E1E1E1E1E1E1E1E1E1E1E1E1E1E1E1E1E1E1E1E1E1E1E1E1E1E1E2E1E1E1E1E1E1E1E1E1E1E1E1E1E1E1E1E1E1E1E1E1E1E1E1E1E1E1E1E1E1E1E1E1
310
E1E1E1E1E1E1E1E1E1E1E1E1E1E1E1E1E1E1E1E1E1E1E1E1E1E1E1E1E1E1E1E1E1E1E1E1E1E1E1E1E1E1E1E1E1E1E1E1E1E1E1E1E1E1E1E1E1E2E1E1E1E1E1E1E1E1E1E1E1E1E1E1E1E1E1E1E1E1E1E1E1E1E1E1E1E1E1E1E1E1E1E1E1E1E1E1E1E1E1E1E1E1E1E1E1E1E1E1E1E1E1E1E1E1E1E1E1E1E1E1E1E1E1E1E1E1E1
310
E1E1E1E1E1E1E1E1E1E1E1E1E1E1E1E1E1E1E1E1E1E1E1E1E1E1E1E1E1E1E1E1E1E1E1E1E1E1E1E1E1E1E1E1E1E1E1E1E1E2E1E1E1E1E1E1E1E1E1E1E1E1E1E1E1E2E1E1E1E1E1E1E1E1E1E1E1E1E1E1E1E1E1E1E1E1E1E1E1E1E1E1E1E1E1E2E1E1E1E1E1E1E1E1E1E1E1E1E1E1E1E1E1E1E1E1E1E1E1E1E1E1E1E1E1E1E1
310
E1E1E1E1E1E2E2E2E2E2E2E2E1E1E1E1E1E1E1E1E1E1E1E1E1E1E1E1E1E1E1E1E1E1E1E1E1E1E1E1E1E1E1E1E1E1E1E1E1E1E1E1E1E1E1E1E1E1E1E2E1E1E1E1E1E1E1E1E1E1E1E1E1E1E1E1E1E1E1E1E1E1E1E1E1E1E1E1E1E1E1E1E1E1E1E1E1E1E1E1E1E1E1E1E1E1E1E1E1E1E1E1E1E1E1E1E1E1E1E1E1E1E1E1E1E1E1
310
E1E1E1E1E1E1E1E1E1E1E1E1E1E1E1E1E1E1E1E1E1E1E1E1E1E1E1E1E1E1E1E1E1E1E1E1E1E1E1E1E1E1E1E1E1E1E1E1E1E1E1E2E1E1E1E1E1E1E1E1E1E1E1E1E1E1E1E2E1E1E1E1E1E1E1E1E1E1E1E1E1E1E1E1E1E1E1E1E1E1E1E1E1E1E1E1E1E2E1E1E1E1E1E1E1E1E1E1E1E1E1E1E1E1E1E1E1E1E1E1E1E1E1E1E1E1E1
310
E1E1E1E1E1E1E1E2E1E1E1E1E1E2E1E1E1E1E1E1E1E1E1E1E1E1E1E1E1E1E1E1E1E1E1E1E1E1E1E1E1E1E1E1E1E1E1E1E1E1E1E1E1E1E1E1E1E1E1E1E1E2E1E1E1E1E1E1E1E1E1E1E1E1E1E1E1E1E1E1E1E1E1E1E1E1E1E1E1E1E1E1E1E1E1E1E1E1E1E1E1E1E1E1E1E1E1E1E1E1E1E1E1E1E1E1E1E1E1E1E1E1E1E1E1E1E1
310
E1E1E1E1E1E1E1E1E1E1E1E1E1E1E1E1E1E1E1E1E1E1E1E1E1E1E1E1E1E1E1E1E1E1E1E1E1E1E1E1E1E1E1E1E1E1E1E1E1E1E1E1E1E2E1E1E1E1E1E1E1E1E1E1E1E1E1E1E1E2E1E1E1E1E1E1E1E1E1E1E1E1E1E1E1E1E1E1E1E1E1E1E1E1E1E1E1E1E1E2E1E1E1E1E1E1E1E1E1E1E1E1E1E1E1E1E1E1E1E1E1E1E1E1E1E1E1
310
E1E1E1E1E1E1E1E1E1F0F0F0F0F0F0F0E1E1E1E1E1E1E1E1E1E1E1E1E1E1E1E1E1E1E1E1E1E1E1E1E1E1E1E1E1E1E1E1E1E1E1E1E1E1E1E1E1E1E1E1E1E1E1E2E1E1E1E1E1E1E1E1E1E1E1E1E1E1E1E1E1E1E1E1E1E1E1E1E1E1E1E1E1E1E1E1E1E1E1E1E1E1E1E1E1E1E1E1E1E1E1E1E1E1E1E1E1E1E1E1E1E1E1E1E1E1E1
310
E1E1E1E1E1E1E1E1E1E1E1E1E1E1E1E1E1E1E1E1E1E1E1E1E1E1E1E1E1E1E1E1E1E1E1E1E1E1E1E1E1E1E1E1E1E1E1E1E1E1E1E1E1E1E1E2E1E1E1E1E1E1E1E1E1E1E1E1E1E1E1E2E1E1E1E1E1E1E1E1E1E1E1E1E1E1E1E1E1E1E1E1E1E1E1E1E1E1E1E1E1E2E1E1E1E1E1E1E1E1E1E1E1E1E1E1E1E1E1E1E1E1E1E1E1E1E1
310
E1E1E1E1E1E1E1E1E1E1E1F0F0F0F0F0F0F0E1E1E1E1E1E1E1E1E1E1E1E1E1E1E1E1E1E1E1E1E1E1E1E1E1E1E1E1E1E1E1E1E1E1E1E1E1E1E1E1E1E1E1E1E1E1E1E2E1E1E1E1E1E1E1E1E1E1E1E1E1E1E1E1E1E1E1E1E1E1E1E1E1E1E1E1E1E1E1E1E1E1E1E1E1E1E1E1E1E1E1E1E1E1E1E1E1E1E1E1E1E1E1E1E1E1E1E1E1
310
E1E1E1E1E1E1E1E1E1E1E1E1E1E1E1E1E1E1E1E1E1E1E1E1E1E1E1E1E1E1E1E1E1E1E1E1E1E1E1E1E1E1E1E1E1E1E1E1E1E1E1E1E1E1E1E1E1E2E1E1E1E1E1E1E1E1E1E1E1E1E1E1E1E2E1E1E1E1E1E1E1E1E1E1E1E1E1E1E1E1E1E1E1E1E1E1E1E1E1E1E1E1E1E2E1E1E1E1E1E1E1E1E1E1E1E1E1E1E1E1E1E1E1E1E1E1E1
310
E1E1E1E1E1E1E1E1E1E1E1E1E1E2E1E1E1E1E1E2E1E1E1E1E1E1E1E1E1E1E1E1E1E1E1E1E1E1E1E1E1E1E1E1E1E1E1E1E1E1E1E1E1E1E1E1E1E1E1E1E1E1E1E1E1E1E1E2E1E1E1E1E1E1E1E1E1E1E1E1E1E1E1E1E1E1E1E1E1E1E1E1E1E1E1E1E1E1E1E1E1E1E1E1E1E1E1E1E1E1E1E1E1E1E1E1E1E1E1E1E1E1E1E1E1E1E1
310
E1E1E1E1E1
  0
XRECORD
  5
275A2
102
{ACAD_REACTORS
330
1A1
102
}
330
1A1
100
AcDbXrecord
280
     1
102
MATERIAL
148
0.0
149
0.0
149
0.0
 93
        0
 94
      127
282
     0
 72
     0
 77
     0
171
     0
175
     0
179
     0
273
     0
  0
XRECORD
  5
1A3
102
{ACAD_REACTORS
330
1A1
102
}
330
1A1
100
AcDbXrecord
280
     1
270
     1
271
     1
  0
XRECORD
  5
1A2
102
{ACAD_REACTORS
330
1A1
102
}
330
1A1
100
AcDbXrecord
280
     1
270
     1
271
     1
  0
XRECORD
  5
1A6
102
{ACAD_REACTORS
330
1A1
102
}
330
1A1
100
AcDbXrecord
280
     1
270
     1
271
     1
  0
XRECORD
  5
1A5
102
{ACAD_REACTORS
330
1A1
102
}
330
1A1
100
AcDbXrecord
280
     1
270
     1
271
     1
  0
XRECORD
  5
1A7
102
{ACAD_REACTORS
330
1A1
102
}
330
1A1
100
AcDbXrecord
280
     1
270
     1
271
     1
  0
XRECORD
  5
1A4
102
{ACAD_REACTORS
330
1A1
102
}
330
1A1
100
AcDbXrecord
280
     1
270
     1
271
     1
  0
XRECORD
  5
275A1
102
{ACAD_REACTORS
330
199
102
}
330
199
100
AcDbXrecord
280
     1
102
MATERIAL
148
0.0
149
0.0
149
0.0
 93
        0
 94
      127
282
     0
 72
     0
 77
     0
171
     0
175
     0
179
     0
273
     0
  0
XRECORD
  5
19B
102
{ACAD_REACTORS
330
199
102
}
330
199
100
AcDbXrecord
280
     1
270
     1
271
     1
  0
XRECORD
  5
19A
102
{ACAD_REACTORS
330
199
102
}
330
199
100
AcDbXrecord
280
     1
270
     1
271
     1
  0
XRECORD
  5
19E
102
{ACAD_REACTORS
330
199
102
}
330
199
100
AcDbXrecord
280
     1
270
     1
271
     1
  0
XRECORD
  5
19D
102
{ACAD_REACTORS
330
199
102
}
330
199
100
AcDbXrecord
280
     1
270
     1
271
     1
  0
XRECORD
  5
19F
102
{ACAD_REACTORS
330
199
102
}
330
199
100
AcDbXrecord
280
     1
270
     1
271
     1
  0
XRECORD
  5
19C
102
{ACAD_REACTORS
330
199
102
}
330
199
100
AcDbXrecord
280
     1
270
     1
271
     1
  0
XRECORD
  5
275A3
102
{ACAD_REACTORS
330
1A9
102
}
330
1A9
100
AcDbXrecord
280
     1
102
MATERIAL
148
0.0
149
0.0
149
0.0
 93
        0
 94
      127
282
     0
 72
     0
 77
     0
171
     0
175
     0
179
     0
273
     0
  0
XRECORD
  5
1AB
102
{ACAD_REACTORS
330
1A9
102
}
330
1A9
100
AcDbXrecord
280
     1
270
     1
271
     1
  0
XRECORD
  5
1AA
102
{ACAD_REACTORS
330
1A9
102
}
330
1A9
100
AcDbXrecord
280
     1
270
     1
271
     1
  0
XRECORD
  5
1AE
102
{ACAD_REACTORS
330
1A9
102
}
330
1A9
100
AcDbXrecord
280
     1
270
     1
271
     1
  0
XRECORD
  5
1AD
102
{ACAD_REACTORS
330
1A9
102
}
330
1A9
100
AcDbXrecord
280
     1
270
     1
271
     1
  0
XRECORD
  5
1AF
102
{ACAD_REACTORS
330
1A9
102
}
330
1A9
100
AcDbXrecord
280
     1
270
     1
271
     1
  0
XRECORD
  5
1AC
102
{ACAD_REACTORS
330
1A9
102
}
330
1A9
100
AcDbXrecord
280
     1
270
     1
271
     1
  0
CELLSTYLEMAP
  5
275D8
102
{ACAD_REACTORS
330
141C5
102
}
330
141C5
100
AcDbCellStyleMap
 90
        3
300
CELLSTYLE
  1
TABLEFORMAT_BEGIN
 90
        5
170
     1
 91
        0
 92
    32768
 62
   257
 93
        1
300
CONTENTFORMAT
  1
CONTENTFORMAT_BEGIN
 90
        0
 91
        0
 92
      512
 93
        0
300

 40
0.0
140
1.0
 94
        5
 62
     0
340
10
144
6.0
309
CONTENTFORMAT_END
171
     1
301
MARGIN
  1
CELLMARGIN_BEGIN
 40
1.5
 40
1.5
 40
1.5
 40
1.5
 40
0.18
 40
0.18
309
CELLMARGIN_END
 94
        6
 95
        1
302
GRIDFORMAT
  1
GRIDFORMAT_BEGIN
 90
        0
 91
        1
 62
     0
 92
       -2
340
0
 93
        0
 40
1.125
309
GRIDFORMAT_END
 95
        2
302
GRIDFORMAT
  1
GRIDFORMAT_BEGIN
 90
        0
 91
        1
 62
     0
 92
       -2
340
0
 93
        0
 40
1.125
309
GRIDFORMAT_END
 95
        4
302
GRIDFORMAT
  1
GRIDFORMAT_BEGIN
 90
        0
 91
        1
 62
     0
 92
       -2
340
0
 93
        0
 40
1.125
309
GRIDFORMAT_END
 95
        8
302
GRIDFORMAT
  1
GRIDFORMAT_BEGIN
 90
        0
 91
        1
 62
     0
 92
       -2
340
0
 93
        0
 40
1.125
309
GRIDFORMAT_END
 95
       16
302
GRIDFORMAT
  1
GRIDFORMAT_BEGIN
 90
        0
 91
        1
 62
     0
 92
       -2
340
0
 93
        0
 40
1.125
309
GRIDFORMAT_END
 95
       32
302
GRIDFORMAT
  1
GRIDFORMAT_BEGIN
 90
        0
 91
        1
 62
     0
 92
       -2
340
0
 93
        0
 40
1.125
309
GRIDFORMAT_END
309
TABLEFORMAT_END
  1
CELLSTYLE_BEGIN
 90
        1
 91
        1
300
_TITLE
309
CELLSTYLE_END
300
CELLSTYLE
  1
TABLEFORMAT_BEGIN
 90
        5
170
     1
 91
        0
 92
        0
 62
   257
 93
        1
300
CONTENTFORMAT
  1
CONTENTFORMAT_BEGIN
 90
        0
 91
        0
 92
      512
 93
        0
300

 40
0.0
140
1.0
 94
        5
 62
     0
340
10
144
4.5
309
CONTENTFORMAT_END
171
     1
301
MARGIN
  1
CELLMARGIN_BEGIN
 40
1.5
 40
1.5
 40
1.5
 40
1.5
 40
0.18
 40
0.18
309
CELLMARGIN_END
 94
        6
 95
        1
302
GRIDFORMAT
  1
GRIDFORMAT_BEGIN
 90
        0
 91
        1
 62
     0
 92
       -2
340
0
 93
        0
 40
1.125
309
GRIDFORMAT_END
 95
        2
302
GRIDFORMAT
  1
GRIDFORMAT_BEGIN
 90
        0
 91
        1
 62
     0
 92
       -2
340
0
 93
        0
 40
1.125
309
GRIDFORMAT_END
 95
        4
302
GRIDFORMAT
  1
GRIDFORMAT_BEGIN
 90
        0
 91
        1
 62
     0
 92
       -2
340
0
 93
        0
 40
1.125
309
GRIDFORMAT_END
 95
        8
302
GRIDFORMAT
  1
GRIDFORMAT_BEGIN
 90
        0
 91
        1
 62
     0
 92
       -2
340
0
 93
        0
 40
1.125
309
GRIDFORMAT_END
 95
       16
302
GRIDFORMAT
  1
GRIDFORMAT_BEGIN
 90
        0
 91
        1
 62
     0
 92
       -2
340
0
 93
        0
 40
1.125
309
GRIDFORMAT_END
 95
       32
302
GRIDFORMAT
  1
GRIDFORMAT_BEGIN
 90
        0
 91
        1
 62
     0
 92
       -2
340
0
 93
        0
 40
1.125
309
GRIDFORMAT_END
309
TABLEFORMAT_END
  1
CELLSTYLE_BEGIN
 90
        2
 91
        1
300
_HEADER
309
CELLSTYLE_END
300
CELLSTYLE
  1
TABLEFORMAT_BEGIN
 90
        5
170
     1
 91
        0
 92
        0
 62
   257
 93
        1
300
CONTENTFORMAT
  1
CONTENTFORMAT_BEGIN
 90
        0
 91
        0
 92
      512
 93
        0
300

 40
0.0
140
1.0
 94
        2
 62
     0
340
10
144
4.5
309
CONTENTFORMAT_END
171
     1
301
MARGIN
  1
CELLMARGIN_BEGIN
 40
1.5
 40
1.5
 40
1.5
 40
1.5
 40
0.18
 40
0.18
309
CELLMARGIN_END
 94
        6
 95
        1
302
GRIDFORMAT
  1
GRIDFORMAT_BEGIN
 90
        0
 91
        1
 62
     0
 92
       -2
340
0
 93
        0
 40
1.125
309
GRIDFORMAT_END
 95
        2
302
GRIDFORMAT
  1
GRIDFORMAT_BEGIN
 90
        0
 91
        1
 62
     0
 92
       -2
340
0
 93
        0
 40
1.125
309
GRIDFORMAT_END
 95
        4
302
GRIDFORMAT
  1
GRIDFORMAT_BEGIN
 90
        0
 91
        1
 62
     0
 92
       -2
340
0
 93
        0
 40
1.125
309
GRIDFORMAT_END
 95
        8
302
GRIDFORMAT
  1
GRIDFORMAT_BEGIN
 90
        0
 91
        1
 62
     0
 92
       -2
340
0
 93
        0
 40
1.125
309
GRIDFORMAT_END
 95
       16
302
GRIDFORMAT
  1
GRIDFORMAT_BEGIN
 90
        0
 91
        1
 62
     0
 92
       -2
340
0
 93
        0
 40
1.125
309
GRIDFORMAT_END
 95
       32
302
GRIDFORMAT
  1
GRIDFORMAT_BEGIN
 90
        0
 91
        1
 62
     0
 92
       -2
340
0
 93
        0
 40
1.125
309
GRIDFORMAT_END
309
TABLEFORMAT_END
  1
CELLSTYLE_BEGIN
 90
        3
 91
        2
300
_DATA
309
CELLSTYLE_END
  0
XRECORD
  5
27608
102
{ACAD_REACTORS
330
141C5
102
}
330
141C5
100
AcDbXrecord
280
     1
102
ACAD_ROUNDTRIP_PRE2007_TABLESTYLE
 90
      512
 91
        0
  1

 92
      512
 93
        0
  2

 94
      512
 95
        0
  3

  0
XRECORD
  5
275ED
102
{ACAD_REACTORS
330
275EC
102
}
330
275EC
100
AcDbXrecord
280
     1
102
RTVSPropertyOp0
 70
     1
102
RTVSPropertyOp1
 70
     1
102
RTVSPropertyOp2
 70
     1
102
RTVSPropertyOp3
 70
     1
102
RTVSPropertyOp4
 70
     1
102
RTVSPropertyOp5
 70
     1
102
RTVSPropertyOp6
 70
     1
102
RTVSPropertyOp7
 70
     1
102
RTVSPropertyOp8
 70
     1
102
RTVSPropertyOp9
 70
     1
102
RTVSPropertyOp10
 70
     1
102
RTVSPropertyOp11
 70
     1
102
RTVSPropertyOp12
 70
     1
102
RTVSPropertyOp13
 70
     1
102
RTVSPropertyOp14
 70
     1
102
RTVSPropertyOp15
 70
     1
102
RTVSPropertyOp16
 70
     1
102
RTVSPropertyOp17
 70
     1
102
RTVSPropertyOp18
 70
     1
102
RTVSPropertyOp19
 70
     1
102
RTVSPropertyOp20
 70
     1
102
RTVSPropertyOp21
 70
     1
102
RTVSPropertyOp22
 70
     1
102
RTVSPropertyOp23
 70
     1
102
RTVSPropertyOp24
 70
     1
102
RTVSPropertyOp25
 70
     1
102
RTVSPropertyOp26
 70
     1
102
RTVSPropertyOp27
 70
     1
  0
XRECORD
  5
275F1
102
{ACAD_REACTORS
330
275F0
102
}
330
275F0
100
AcDbXrecord
280
     1
102
RTVSPropertyOp0
 70
     1
102
RTVSPropertyOp1
 70
     1
102
RTVSPropertyOp2
 70
     1
102
RTVSPropertyOp3
 70
     1
102
RTVSPropertyOp4
 70
     1
102
RTVSPropertyOp5
 70
     1
102
RTVSPropertyOp6
 70
     1
102
RTVSPropertyOp7
 70
     1
102
RTVSPropertyOp8
 70
     1
102
RTVSPropertyOp9
 70
     1
102
RTVSPropertyOp10
 70
     1
102
RTVSPropertyOp11
 70
     1
102
RTVSPropertyOp12
 70
     1
102
RTVSPropertyOp13
 70
     1
102
RTVSPropertyOp14
 70
     1
102
RTVSPropertyOp15
 70
     1
102
RTVSPropertyOp16
 70
     1
102
RTVSPropertyOp17
 70
     1
102
RTVSPropertyOp18
 70
     1
102
RTVSPropertyOp19
 70
     1
102
RTVSPropertyOp20
 70
     1
102
RTVSPropertyOp21
 70
     1
102
RTVSPropertyOp22
 70
     1
102
RTVSPropertyOp23
 70
     1
102
RTVSPropertyOp24
 70
     1
102
RTVSPropertyOp25
 70
     1
102
RTVSPropertyOp26
 70
     1
102
RTVSPropertyOp27
 70
     1
  0
XRECORD
  5
275EF
102
{ACAD_REACTORS
330
275EE
102
}
330
275EE
100
AcDbXrecord
280
     1
102
RTVSPropertyOp0
 70
     1
102
RTVSPropertyOp1
 70
     1
102
RTVSPropertyOp2
 70
     1
102
RTVSPropertyOp3
 70
     1
102
RTVSPropertyOp4
 70
     1
102
RTVSPropertyOp5
 70
     1
102
RTVSPropertyOp6
 70
     1
102
RTVSPropertyOp7
 70
     1
102
RTVSPropertyOp8
 70
     1
102
RTVSPropertyOp9
 70
     1
102
RTVSPropertyOp10
 70
     1
102
RTVSPropertyOp11
 70
     1
102
RTVSPropertyOp12
 70
     1
102
RTVSPropertyOp13
 70
     1
102
RTVSPropertyOp14
 70
     1
102
RTVSPropertyOp15
 70
     1
102
RTVSPropertyOp16
 70
     1
102
RTVSPropertyOp17
 70
     1
102
RTVSPropertyOp18
 70
     1
102
RTVSPropertyOp19
 70
     1
102
RTVSPropertyOp20
 70
     1
102
RTVSPropertyOp21
 70
     1
102
RTVSPropertyOp22
 70
     1
102
RTVSPropertyOp23
 70
     1
102
RTVSPropertyOp24
 70
     1
102
RTVSPropertyOp25
 70
     1
102
RTVSPropertyOp26
 70
     1
102
RTVSPropertyOp27
 70
     1
  0
XRECORD
  5
275EB
102
{ACAD_REACTORS
330
275EA
102
}
330
275EA
100
AcDbXrecord
280
     1
102
RTVSPropertyOp0
 70
     1
102
RTVSPropertyOp1
 70
     1
102
RTVSPropertyOp2
 70
     1
102
RTVSPropertyOp3
 70
     1
102
RTVSPropertyOp4
 70
     1
102
RTVSPropertyOp5
 70
     1
102
RTVSPropertyOp6
 70
     1
102
RTVSPropertyOp7
 70
     1
102
RTVSPropertyOp8
 70
     1
102
RTVSPropertyOp9
 70
     1
102
RTVSPropertyOp10
 70
     1
102
RTVSPropertyOp11
 70
     1
102
RTVSPropertyOp12
 70
     1
102
RTVSPropertyOp13
 70
     1
102
RTVSPropertyOp14
 70
     1
102
RTVSPropertyOp15
 70
     1
102
RTVSPropertyOp16
 70
     1
102
RTVSPropertyOp17
 70
     1
102
RTVSPropertyOp18
 70
     1
102
RTVSPropertyOp19
 70
     1
102
RTVSPropertyOp20
 70
     1
102
RTVSPropertyOp21
 70
     1
102
RTVSPropertyOp22
 70
     1
102
RTVSPropertyOp23
 70
     1
102
RTVSPropertyOp24
 70
     1
102
RTVSPropertyOp25
 70
     1
102
RTVSPropertyOp26
 70
     1
102
RTVSPropertyOp27
 70
     1
  0
XRECORD
  5
275F9
102
{ACAD_REACTORS
330
275F8
102
}
330
275F8
100
AcDbXrecord
280
     1
102
RTVSPropertyOp0
 70
     1
102
RTVSPropertyOp1
 70
     1
102
RTVSPropertyOp2
 70
     1
102
RTVSPropertyOp3
 70
     1
102
RTVSPropertyOp4
 70
     1
102
RTVSPropertyOp5
 70
     1
102
RTVSPropertyOp6
 70
     1
102
RTVSPropertyOp7
 70
     1
102
RTVSPropertyOp8
 70
     1
102
RTVSPropertyOp9
 70
     1
102
RTVSPropertyOp10
 70
     1
102
RTVSPropertyOp11
 70
     1
102
RTVSPropertyOp12
 70
     1
102
RTVSPropertyOp13
 70
     1
102
RTVSPropertyOp14
 70
     1
102
RTVSPropertyOp15
 70
     1
102
RTVSPropertyOp16
 70
     1
102
RTVSPropertyOp17
 70
     1
102
RTVSPropertyOp18
 70
     1
102
RTVSPropertyOp19
 70
     1
102
RTVSPropertyOp20
 70
     1
102
RTVSPropertyOp21
 70
     1
102
RTVSPropertyOp22
 70
     1
102
RTVSPropertyOp23
 70
     1
102
RTVSPropertyOp24
 70
     1
102
RTVSPropertyOp25
 70
     1
102
RTVSPropertyOp26
 70
     1
102
RTVSPropertyOp27
 70
     1
  0
XRECORD
  5
27601
102
{ACAD_REACTORS
330
27600
102
}
330
27600
100
AcDbXrecord
280
     1
102
RTVSPropertyOp0
 70
     1
102
RTVSPropertyOp1
 70
     1
102
RTVSPropertyOp2
 70
     1
102
RTVSPropertyOp3
 70
     1
102
RTVSPropertyOp4
 70
     1
102
RTVSPropertyOp5
 70
     1
102
RTVSPropertyOp6
 70
     1
102
RTVSPropertyOp7
 70
     1
102
RTVSPropertyOp8
 70
     1
102
RTVSPropertyOp9
 70
     1
102
RTVSPropertyOp10
 70
     1
102
RTVSPropertyOp11
 70
     1
102
RTVSPropertyOp12
 70
     1
102
RTVSPropertyOp13
 70
     1
102
RTVSPropertyOp14
 70
     1
102
RTVSPropertyOp15
 70
     1
102
RTVSPropertyOp16
 70
     1
102
RTVSPropertyOp17
 70
     1
102
RTVSPropertyOp18
 70
     1
102
RTVSPropertyOp19
 70
     1
102
RTVSPropertyOp20
 70
     1
102
RTVSPropertyOp21
 70
     1
102
RTVSPropertyOp22
 70
     1
102
RTVSPropertyOp23
 70
     1
102
RTVSPropertyOp24
 70
     1
102
RTVSPropertyOp25
 70
     1
102
RTVSPropertyOp26
 70
     1
102
RTVSPropertyOp27
 70
     1
  0
XRECORD
  5
275F3
102
{ACAD_REACTORS
330
275F2
102
}
330
275F2
100
AcDbXrecord
280
     1
102
RTVSPropertyOp0
 70
     1
102
RTVSPropertyOp1
 70
     1
102
RTVSPropertyOp2
 70
     1
102
RTVSPropertyOp3
 70
     1
102
RTVSPropertyOp4
 70
     1
102
RTVSPropertyOp5
 70
     1
102
RTVSPropertyOp6
 70
     1
102
RTVSPropertyOp7
 70
     1
102
RTVSPropertyOp8
 70
     1
102
RTVSPropertyOp9
 70
     1
102
RTVSPropertyOp10
 70
     1
102
RTVSPropertyOp11
 70
     1
102
RTVSPropertyOp12
 70
     1
102
RTVSPropertyOp13
 70
     1
102
RTVSPropertyOp14
 70
     1
102
RTVSPropertyOp15
 70
     1
102
RTVSPropertyOp16
 70
     1
102
RTVSPropertyOp17
 70
     1
102
RTVSPropertyOp18
 70
     1
102
RTVSPropertyOp19
 70
     1
102
RTVSPropertyOp20
 70
     1
102
RTVSPropertyOp21
 70
     1
102
RTVSPropertyOp22
 70
     1
102
RTVSPropertyOp23
 70
     1
102
RTVSPropertyOp24
 70
     1
102
RTVSPropertyOp25
 70
     1
102
RTVSPropertyOp26
 70
     1
102
RTVSPropertyOp27
 70
     1
  0
XRECORD
  5
275F7
102
{ACAD_REACTORS
330
275F6
102
}
330
275F6
100
AcDbXrecord
280
     1
102
RTVSPropertyOp0
 70
     1
102
RTVSPropertyOp1
 70
     1
102
RTVSPropertyOp2
 70
     1
102
RTVSPropertyOp3
 70
     1
102
RTVSPropertyOp4
 70
     1
102
RTVSPropertyOp5
 70
     1
102
RTVSPropertyOp6
 70
     1
102
RTVSPropertyOp7
 70
     1
102
RTVSPropertyOp8
 70
     1
102
RTVSPropertyOp9
 70
     1
102
RTVSPropertyOp10
 70
     1
102
RTVSPropertyOp11
 70
     1
102
RTVSPropertyOp12
 70
     1
102
RTVSPropertyOp13
 70
     1
102
RTVSPropertyOp14
 70
     1
102
RTVSPropertyOp15
 70
     1
102
RTVSPropertyOp16
 70
     1
102
RTVSPropertyOp17
 70
     1
102
RTVSPropertyOp18
 70
     1
102
RTVSPropertyOp19
 70
     1
102
RTVSPropertyOp20
 70
     1
102
RTVSPropertyOp21
 70
     1
102
RTVSPropertyOp22
 70
     1
102
RTVSPropertyOp23
 70
     1
102
RTVSPropertyOp24
 70
     1
102
RTVSPropertyOp25
 70
     1
102
RTVSPropertyOp26
 70
     1
102
RTVSPropertyOp27
 70
     1
  0
XRECORD
  5
27607
102
{ACAD_REACTORS
330
27606
102
}
330
27606
100
AcDbXrecord
280
     1
102
RTVSPropertyOp0
 70
     0
102
RTVSPropertyOp1
 70
     0
102
RTVSPropertyOp2
 70
     0
102
RTVSPropertyOp3
 70
     0
102
RTVSPropertyOp4
 70
     0
102
RTVSPropertyOp5
 70
     0
102
RTVSPropertyOp6
 70
     0
102
RTVSPropertyOp7
 70
     0
102
RTVSPropertyOp8
 70
     0
102
RTVSPropertyOp9
 70
     0
102
RTVSPropertyOp10
 70
     0
102
RTVSPropertyOp11
 70
     0
102
RTVSPropertyOp12
 70
     0
102
RTVSPropertyOp13
 70
     0
102
RTVSPropertyOp14
 70
     2
102
RTVSPropertyOp15
 70
     0
102
RTVSPropertyOp16
 70
     0
102
RTVSPropertyOp17
 70
     0
102
RTVSPropertyOp18
 70
     0
102
RTVSPropertyOp19
 70
     0
102
RTVSPropertyOp20
 70
     0
102
RTVSPropertyOp21
 70
     0
102
RTVSPropertyOp22
 70
     0
102
RTVSPropertyOp23
 70
     0
102
RTVSPropertyOp24
 70
     0
102
RTVSPropertyOp25
 70
     0
102
RTVSPropertyOp26
 70
     0
102
RTVSPropertyOp27
 70
     0
  0
XRECORD
  5
275FF
102
{ACAD_REACTORS
330
275FE
102
}
330
275FE
100
AcDbXrecord
280
     1
102
RTVSPropertyOp0
 70
     1
102
RTVSPropertyOp1
 70
     1
102
RTVSPropertyOp2
 70
     1
102
RTVSPropertyOp3
 70
     1
102
RTVSPropertyOp4
 70
     1
102
RTVSPropertyOp5
 70
     1
102
RTVSPropertyOp6
 70
     1
102
RTVSPropertyOp7
 70
     1
102
RTVSPropertyOp8
 70
     1
102
RTVSPropertyOp9
 70
     1
102
RTVSPropertyOp10
 70
     1
102
RTVSPropertyOp11
 70
     1
102
RTVSPropertyOp12
 70
     1
102
RTVSPropertyOp13
 70
     1
102
RTVSPropertyOp14
 70
     1
102
RTVSPropertyOp15
 70
     1
102
RTVSPropertyOp16
 70
     1
102
RTVSPropertyOp17
 70
     1
102
RTVSPropertyOp18
 70
     1
102
RTVSPropertyOp19
 70
     1
102
RTVSPropertyOp20
 70
     1
102
RTVSPropertyOp21
 70
     1
102
RTVSPropertyOp22
 70
     1
102
RTVSPropertyOp23
 70
     1
102
RTVSPropertyOp24
 70
     1
102
RTVSPropertyOp25
 70
     1
102
RTVSPropertyOp26
 70
     1
102
RTVSPropertyOp27
 70
     1
  0
XRECORD
  5
275E3
102
{ACAD_REACTORS
330
275E2
102
}
330
275E2
100
AcDbXrecord
280
     1
102
RTVSPropertyOp0
 70
     1
102
RTVSPropertyOp1
 70
     1
102
RTVSPropertyOp2
 70
     1
102
RTVSPropertyOp3
 70
     1
102
RTVSPropertyOp4
 70
     1
102
RTVSPropertyOp5
 70
     1
102
RTVSPropertyOp6
 70
     1
102
RTVSPropertyOp7
 70
     1
102
RTVSPropertyOp8
 70
     1
102
RTVSPropertyOp9
 70
     1
102
RTVSPropertyOp10
 70
     1
102
RTVSPropertyOp11
 70
     1
102
RTVSPropertyOp12
 70
     1
102
RTVSPropertyOp13
 70
     1
102
RTVSPropertyOp14
 70
     1
102
RTVSPropertyOp15
 70
     1
102
RTVSPropertyOp16
 70
     1
102
RTVSPropertyOp17
 70
     1
102
RTVSPropertyOp18
 70
     1
102
RTVSPropertyOp19
 70
     1
102
RTVSPropertyOp20
 70
     1
102
RTVSPropertyOp21
 70
     1
102
RTVSPropertyOp22
 70
     1
102
RTVSPropertyOp23
 70
     1
102
RTVSPropertyOp24
 70
     1
102
RTVSPropertyOp25
 70
     1
102
RTVSPropertyOp26
 70
     1
102
RTVSPropertyOp27
 70
     1
  0
XRECORD
  5
275E5
102
{ACAD_REACTORS
330
275E4
102
}
330
275E4
100
AcDbXrecord
280
     1
102
RTVSPropertyOp0
 70
     1
102
RTVSPropertyOp1
 70
     1
102
RTVSPropertyOp2
 70
     1
102
RTVSPropertyOp3
 70
     1
102
RTVSPropertyOp4
 70
     1
102
RTVSPropertyOp5
 70
     1
102
RTVSPropertyOp6
 70
     1
102
RTVSPropertyOp7
 70
     1
102
RTVSPropertyOp8
 70
     1
102
RTVSPropertyOp9
 70
     1
102
RTVSPropertyOp10
 70
     1
102
RTVSPropertyOp11
 70
     1
102
RTVSPropertyOp12
 70
     1
102
RTVSPropertyOp13
 70
     1
102
RTVSPropertyOp14
 70
     1
102
RTVSPropertyOp15
 70
     1
102
RTVSPropertyOp16
 70
     1
102
RTVSPropertyOp17
 70
     1
102
RTVSPropertyOp18
 70
     1
102
RTVSPropertyOp19
 70
     1
102
RTVSPropertyOp20
 70
     1
102
RTVSPropertyOp21
 70
     1
102
RTVSPropertyOp22
 70
     1
102
RTVSPropertyOp23
 70
     1
102
RTVSPropertyOp24
 70
     1
102
RTVSPropertyOp25
 70
     1
102
RTVSPropertyOp26
 70
     1
102
RTVSPropertyOp27
 70
     1
  0
XRECORD
  5
275E7
102
{ACAD_REACTORS
330
275E6
102
}
330
275E6
100
AcDbXrecord
280
     1
102
RTVSPropertyOp0
 70
     1
102
RTVSPropertyOp1
 70
     1
102
RTVSPropertyOp2
 70
     1
102
RTVSPropertyOp3
 70
     1
102
RTVSPropertyOp4
 70
     1
102
RTVSPropertyOp5
 70
     1
102
RTVSPropertyOp6
 70
     1
102
RTVSPropertyOp7
 70
     1
102
RTVSPropertyOp8
 70
     1
102
RTVSPropertyOp9
 70
     1
102
RTVSPropertyOp10
 70
     1
102
RTVSPropertyOp11
 70
     1
102
RTVSPropertyOp12
 70
     1
102
RTVSPropertyOp13
 70
     1
102
RTVSPropertyOp14
 70
     1
102
RTVSPropertyOp15
 70
     1
102
RTVSPropertyOp16
 70
     1
102
RTVSPropertyOp17
 70
     1
102
RTVSPropertyOp18
 70
     1
102
RTVSPropertyOp19
 70
     1
102
RTVSPropertyOp20
 70
     1
102
RTVSPropertyOp21
 70
     1
102
RTVSPropertyOp22
 70
     1
102
RTVSPropertyOp23
 70
     1
102
RTVSPropertyOp24
 70
     1
102
RTVSPropertyOp25
 70
     1
102
RTVSPropertyOp26
 70
     1
102
RTVSPropertyOp27
 70
     1
  0
XRECORD
  5
275E9
102
{ACAD_REACTORS
330
275E8
102
}
330
275E8
100
AcDbXrecord
280
     1
102
RTVSPropertyOp0
 70
     1
102
RTVSPropertyOp1
 70
     1
102
RTVSPropertyOp2
 70
     1
102
RTVSPropertyOp3
 70
     1
102
RTVSPropertyOp4
 70
     1
102
RTVSPropertyOp5
 70
     1
102
RTVSPropertyOp6
 70
     1
102
RTVSPropertyOp7
 70
     1
102
RTVSPropertyOp8
 70
     1
102
RTVSPropertyOp9
 70
     1
102
RTVSPropertyOp10
 70
     1
102
RTVSPropertyOp11
 70
     1
102
RTVSPropertyOp12
 70
     1
102
RTVSPropertyOp13
 70
     1
102
RTVSPropertyOp14
 70
     1
102
RTVSPropertyOp15
 70
     1
102
RTVSPropertyOp16
 70
     1
102
RTVSPropertyOp17
 70
     1
102
RTVSPropertyOp18
 70
     1
102
RTVSPropertyOp19
 70
     1
102
RTVSPropertyOp20
 70
     1
102
RTVSPropertyOp21
 70
     1
102
RTVSPropertyOp22
 70
     1
102
RTVSPropertyOp23
 70
     1
102
RTVSPropertyOp24
 70
     1
102
RTVSPropertyOp25
 70
     1
102
RTVSPropertyOp26
 70
     1
102
RTVSPropertyOp27
 70
     1
  0
XRECORD
  5
27603
102
{ACAD_REACTORS
330
27602
102
}
330
27602
100
AcDbXrecord
280
     1
102
RTVSPropertyOp0
 70
     0
102
RTVSPropertyOp1
 70
     0
102
RTVSPropertyOp2
 70
     0
102
RTVSPropertyOp3
 70
     0
102
RTVSPropertyOp4
 70
     0
102
RTVSPropertyOp5
 70
     0
102
RTVSPropertyOp6
 70
     0
102
RTVSPropertyOp7
 70
     0
102
RTVSPropertyOp8
 70
     0
102
RTVSPropertyOp9
 70
     0
102
RTVSPropertyOp10
 70
     0
102
RTVSPropertyOp11
 70
     0
102
RTVSPropertyOp12
 70
     0
102
RTVSPropertyOp13
 70
     0
102
RTVSPropertyOp14
 70
     2
102
RTVSPropertyOp15
 70
     0
102
RTVSPropertyOp16
 70
     0
102
RTVSPropertyOp17
 70
     0
102
RTVSPropertyOp18
 70
     0
102
RTVSPropertyOp19
 70
     0
102
RTVSPropertyOp20
 70
     0
102
RTVSPropertyOp21
 70
     0
102
RTVSPropertyOp22
 70
     0
102
RTVSPropertyOp23
 70
     0
102
RTVSPropertyOp24
 70
     0
102
RTVSPropertyOp25
 70
     0
102
RTVSPropertyOp26
 70
     0
102
RTVSPropertyOp27
 70
     0
  0
XRECORD
  5
275FD
102
{ACAD_REACTORS
330
275FC
102
}
330
275FC
100
AcDbXrecord
280
     1
102
RTVSPropertyOp0
 70
     1
102
RTVSPropertyOp1
 70
     1
102
RTVSPropertyOp2
 70
     1
102
RTVSPropertyOp3
 70
     1
102
RTVSPropertyOp4
 70
     1
102
RTVSPropertyOp5
 70
     1
102
RTVSPropertyOp6
 70
     1
102
RTVSPropertyOp7
 70
     1
102
RTVSPropertyOp8
 70
     1
102
RTVSPropertyOp9
 70
     1
102
RTVSPropertyOp10
 70
     1
102
RTVSPropertyOp11
 70
     1
102
RTVSPropertyOp12
 70
     1
102
RTVSPropertyOp13
 70
     1
102
RTVSPropertyOp14
 70
     1
102
RTVSPropertyOp15
 70
     1
102
RTVSPropertyOp16
 70
     1
102
RTVSPropertyOp17
 70
     1
102
RTVSPropertyOp18
 70
     1
102
RTVSPropertyOp19
 70
     1
102
RTVSPropertyOp20
 70
     1
102
RTVSPropertyOp21
 70
     1
102
RTVSPropertyOp22
 70
     1
102
RTVSPropertyOp23
 70
     1
102
RTVSPropertyOp24
 70
     1
102
RTVSPropertyOp25
 70
     1
102
RTVSPropertyOp26
 70
     1
102
RTVSPropertyOp27
 70
     1
  0
XRECORD
  5
27605
102
{ACAD_REACTORS
330
27604
102
}
330
27604
100
AcDbXrecord
280
     1
102
RTVSPropertyOp0
 70
     0
102
RTVSPropertyOp1
 70
     0
102
RTVSPropertyOp2
 70
     0
102
RTVSPropertyOp3
 70
     0
102
RTVSPropertyOp4
 70
     0
102
RTVSPropertyOp5
 70
     0
102
RTVSPropertyOp6
 70
     0
102
RTVSPropertyOp7
 70
     0
102
RTVSPropertyOp8
 70
     0
102
RTVSPropertyOp9
 70
     0
102
RTVSPropertyOp10
 70
     0
102
RTVSPropertyOp11
 70
     0
102
RTVSPropertyOp12
 70
     0
102
RTVSPropertyOp13
 70
     0
102
RTVSPropertyOp14
 70
     2
102
RTVSPropertyOp15
 70
     0
102
RTVSPropertyOp16
 70
     0
102
RTVSPropertyOp17
 70
     0
102
RTVSPropertyOp18
 70
     0
102
RTVSPropertyOp19
 70
     0
102
RTVSPropertyOp20
 70
     0
102
RTVSPropertyOp21
 70
     0
102
RTVSPropertyOp22
 70
     0
102
RTVSPropertyOp23
 70
     0
102
RTVSPropertyOp24
 70
     0
102
RTVSPropertyOp25
 70
     0
102
RTVSPropertyOp26
 70
     0
102
RTVSPropertyOp27
 70
     0
  0
XRECORD
  5
275F5
102
{ACAD_REACTORS
330
275F4
102
}
330
275F4
100
AcDbXrecord
280
     1
102
RTVSPropertyOp0
 70
     1
102
RTVSPropertyOp1
 70
     1
102
RTVSPropertyOp2
 70
     1
102
RTVSPropertyOp3
 70
     1
102
RTVSPropertyOp4
 70
     1
102
RTVSPropertyOp5
 70
     1
102
RTVSPropertyOp6
 70
     1
102
RTVSPropertyOp7
 70
     1
102
RTVSPropertyOp8
 70
     1
102
RTVSPropertyOp9
 70
     1
102
RTVSPropertyOp10
 70
     1
102
RTVSPropertyOp11
 70
     1
102
RTVSPropertyOp12
 70
     1
102
RTVSPropertyOp13
 70
     1
102
RTVSPropertyOp14
 70
     1
102
RTVSPropertyOp15
 70
     1
102
RTVSPropertyOp16
 70
     1
102
RTVSPropertyOp17
 70
     1
102
RTVSPropertyOp18
 70
     1
102
RTVSPropertyOp19
 70
     1
102
RTVSPropertyOp20
 70
     1
102
RTVSPropertyOp21
 70
     1
102
RTVSPropertyOp22
 70
     1
102
RTVSPropertyOp23
 70
     1
102
RTVSPropertyOp24
 70
     1
102
RTVSPropertyOp25
 70
     1
102
RTVSPropertyOp26
 70
     1
102
RTVSPropertyOp27
 70
     1
  0
XRECORD
  5
275FB
102
{ACAD_REACTORS
330
275FA
102
}
330
275FA
100
AcDbXrecord
280
     1
102
RTVSPropertyOp0
 70
     1
102
RTVSPropertyOp1
 70
     1
102
RTVSPropertyOp2
 70
     1
102
RTVSPropertyOp3
 70
     1
102
RTVSPropertyOp4
 70
     1
102
RTVSPropertyOp5
 70
     1
102
RTVSPropertyOp6
 70
     1
102
RTVSPropertyOp7
 70
     1
102
RTVSPropertyOp8
 70
     1
102
RTVSPropertyOp9
 70
     1
102
RTVSPropertyOp10
 70
     1
102
RTVSPropertyOp11
 70
     1
102
RTVSPropertyOp12
 70
     1
102
RTVSPropertyOp13
 70
     1
102
RTVSPropertyOp14
 70
     1
102
RTVSPropertyOp15
 70
     1
102
RTVSPropertyOp16
 70
     1
102
RTVSPropertyOp17
 70
     1
102
RTVSPropertyOp18
 70
     1
102
RTVSPropertyOp19
 70
     1
102
RTVSPropertyOp20
 70
     1
102
RTVSPropertyOp21
 70
     1
102
RTVSPropertyOp22
 70
     1
102
RTVSPropertyOp23
 70
     1
102
RTVSPropertyOp24
 70
     1
102
RTVSPropertyOp25
 70
     1
102
RTVSPropertyOp26
 70
     1
102
RTVSPropertyOp27
 70
     1
  0
ENDSEC
  0
EOF
