  0
SECTION
  2
HEADER
  9
$ACADVER
  1
AC1015
  9
$ACADMAINTVER
 70
    20
  9
$DWGCODEPAGE
  3
ANSI_1252
  9
$INSBASE
 10
0.0
 20
0.0
 30
0.0
  9
$EXTMIN
 10
3812.527113363438
 20
4010.265146576879
 30
-0.0015258207003583
  9
$EXTMAX
 10
5376.52863885204
 20
8211.325587256389
 30
0.0000000349246037
  9
$LIMMIN
 10
0.0
 20
0.0
  9
$LIMMAX
 10
2000.0
 20
2000.0
  9
$ORTHOMODE
 70
     0
  9
$REGENMODE
 70
     1
  9
$FILLMODE
 70
     1
  9
$QTEXTMODE
 70
     0
  9
$MIRRTEXT
 70
     1
  9
$LTSCALE
 40
1.0
  9
$ATTMODE
 70
     1
  9
$TEXTSIZE
 40
16.83501683501684
  9
$TRACEWID
 40
1.0
  9
$TEXTSTYLE
  7
STANDARD
  9
$CLAYER
  8
0
  9
$CELTYPE
  6
BYLAYER
  9
$CECOLOR
 62
   256
  9
$CELTSCALE
 40
1.0
  9
$DISPSILH
 70
     0
  9
$DIMSCALE
 40
0.0
  9
$DIMASZ
 40
2.5
  9
$DIMEXO
 40
5.0
  9
$DIMDLI
 40
3.75
  9
$DIMRND
 40
0.0
  9
$DIMDLE
 40
0.0
  9
$DIMEXE
 40
1.25
  9
$DIMTP
 40
0.0
  9
$DIMTM
 40
0.0
  9
$DIMTXT
 40
2.5
  9
$DIMCEN
 40
2.5
  9
$DIMTSZ
 40
0.0
  9
$DIMTOL
 70
     0
  9
$DIMLIM
 70
     0
  9
$DIMTIH
 70
     0
  9
$DIMTOH
 70
     0
  9
$DIMSE1
 70
     0
  9
$DIMSE2
 70
     0
  9
$DIMTAD
 70
     1
  9
$DIMZIN
 70
     8
  9
$DIMBLK
  1

  9
$DIMASO
 70
     1
  9
$DIMSHO
 70
     1
  9
$DIMPOST
  1

  9
$DIMAPOST
  1

  9
$DIMALT
 70
     0
  9
$DIMALTD
 70
     1
  9
$DIMALTF
 40
1.0
  9
$DIMLFAC
 40
-1.0
  9
$DIMTOFL
 70
     1
  9
$DIMTVP
 40
0.0
  9
$DIMTIX
 70
     0
  9
$DIMSOXD
 70
     0
  9
$DIMSAH
 70
     0
  9
$DIMBLK1
  1

  9
$DIMBLK2
  1

  9
$DIMSTYLE
  2
ISO-25_WS
  9
$DIMCLRD
 70
     0
  9
$DIMCLRE
 70
     0
  9
$DIMCLRT
 70
     0
  9
$DIMTFAC
 40
1.0
  9
$DIMGAP
 40
0.625
  9
$DIMJUST
 70
     0
  9
$DIMSD1
 70
     0
  9
$DIMSD2
 70
     0
  9
$DIMTOLJ
 70
     1
  9
$DIMTZIN
 70
     0
  9
$DIMALTZ
 70
     0
  9
$DIMALTTZ
 70
     0
  9
$DIMUPT
 70
     0
  9
$DIMDEC
 70
     1
  9
$DIMTDEC
 70
     1
  9
$DIMALTU
 70
     8
  9
$DIMALTTD
 70
     1
  9
$DIMTXSTY
  7
STANDARD
  9
$DIMAUNIT
 70
     0
  9
$DIMADEC
 70
     0
  9
$DIMALTRND
 40
0.0
  9
$DIMAZIN
 70
     0
  9
$DIMDSEP
 70
    46
  9
$DIMATFIT
 70
     3
  9
$DIMFRAC
 70
     0
  9
$DIMLDRBLK
  1

  9
$DIMLUNIT
 70
     2
  9
$DIMLWD
 70
    13
  9
$DIMLWE
 70
    13
  9
$DIMTMOVE
 70
     0
  9
$LUNITS
 70
     2
  9
$LUPREC
 70
     4
  9
$SKETCHINC
 40
1.0
  9
$FILLETRAD
 40
0.0
  9
$AUNITS
 70
     0
  9
$AUPREC
 70
     0
  9
$MENU
  1
.
  9
$ELEVATION
 40
0.0
  9
$PELEVATION
 40
0.0
  9
$THICKNESS
 40
0.0
  9
$LIMCHECK
 70
     0
  9
$CHAMFERA
 40
1.5
  9
$CHAMFERB
 40
1.5
  9
$CHAMFERC
 40
134.6801346801347
  9
$CHAMFERD
 40
0.0
  9
$SKPOLY
 70
     1
  9
$TDCREATE
 40
2455468.465042303
  9
$TDUCREATE
 40
2455468.381708970
  9
$TDUPDATE
 40
2458249.494915070
  9
$TDUUPDATE
 40
2458249.411581736
  9
$TDINDWG
 40
0.8802842824
  9
$TDUSRTIMER
 40
0.8802840046
  9
$USRTIMER
 70
     1
  9
$ANGBASE
 50
0.0
  9
$ANGDIR
 70
     0
  9
$PDMODE
 70
     0
  9
$PDSIZE
 40
0.0
  9
$PLINEWID
 40
0.0
  9
$SPLFRAME
 70
     0
  9
$SPLINETYPE
 70
     6
  9
$SPLINESEGS
 70
     8
  9
$HANDSEED
  5
27609
  9
$SURFTAB1
 70
     6
  9
$SURFTAB2
 70
     6
  9
$SURFTYPE
 70
     6
  9
$SURFU
 70
     6
  9
$SURFV
 70
     6
  9
$UCSBASE
  2

  9
$UCSNAME
  2

  9
$UCSORG
 10
0.0
 20
0.0
 30
0.0
  9
$UCSXDIR
 10
1.0
 20
0.0
 30
0.0
  9
$UCSYDIR
 10
0.0
 20
1.0
 30
0.0
  9
$UCSORTHOREF
  2

  9
$UCSORTHOVIEW
 70
     0
  9
$UCSORGTOP
 10
0.0
 20
0.0
 30
0.0
  9
$UCSORGBOTTOM
 10
0.0
 20
0.0
 30
0.0
  9
$UCSORGLEFT
 10
0.0
 20
0.0
 30
0.0
  9
$UCSORGRIGHT
 10
0.0
 20
0.0
 30
0.0
  9
$UCSORGFRONT
 10
0.0
 20
0.0
 30
0.0
  9
$UCSORGBACK
 10
0.0
 20
0.0
 30
0.0
  9
$PUCSBASE
  2

  9
$PUCSNAME
  2

  9
$PUCSORG
 10
0.0
 20
0.0
 30
0.0
  9
$PUCSXDIR
 10
1.0
 20
0.0
 30
0.0
  9
$PUCSYDIR
 10
0.0
 20
1.0
 30
0.0
  9
$PUCSORTHOREF
  2

  9
$PUCSORTHOVIEW
 70
     0
  9
$PUCSORGTOP
 10
0.0
 20
0.0
 30
0.0
  9
$PUCSORGBOTTOM
 10
0.0
 20
0.0
 30
0.0
  9
$PUCSORGLEFT
 10
0.0
 20
0.0
 30
0.0
  9
$PUCSORGRIGHT
 10
0.0
 20
0.0
 30
0.0
  9
$PUCSORGFRONT
 10
0.0
 20
0.0
 30
0.0
  9
$PUCSORGBACK
 10
0.0
 20
0.0
 30
0.0
  9
$USERI1
 70
     0
  9
$USERI2
 70
     0
  9
$USERI3
 70
     0
  9
$USERI4
 70
     0
  9
$USERI5
 70
     0
  9
$USERR1
 40
0.0
  9
$USERR2
 40
0.0
  9
$USERR3
 40
0.0
  9
$USERR4
 40
0.0
  9
$USERR5
 40
0.0
  9
$WORLDVIEW
 70
     1
  9
$SHADEDGE
 70
     3
  9
$SHADEDIF
 70
    70
  9
$TILEMODE
 70
     1
  9
$MAXACTVP
 70
    48
  9
$PINSBASE
 10
0.0
 20
0.0
 30
0.0
  9
$PLIMCHECK
 70
     0
  9
$PEXTMIN
 10
27.9632857322693
 20
20.15701580047608
 30
0.0
  9
$PEXTMAX
 10
251.6695715904236
 20
181.4131422042846
 30
0.0
  9
$PLIMMIN
 10
-3.84173583984375
 20
-4.222749710083006
  9
$PLIMMAX
 10
293.1265869140625
 20
205.7505779266358
  9
$UNITMODE
 70
     0
  9
$VISRETAIN
 70
     1
  9
$PLINEGEN
 70
     0
  9
$PSLTSCALE
 70
     1
  9
$TREEDEPTH
 70
  3020
  9
$CMLSTYLE
  2
STANDARD
  9
$CMLJUST
 70
     0
  9
$CMLSCALE
 40
1.0
  9
$PROXYGRAPHICS
 70
     1
  9
$MEASUREMENT
 70
     1
  9
$CELWEIGHT
370
    -1
  9
$ENDCAPS
280
     0
  9
$JOINSTYLE
280
     0
  9
$LWDISPLAY
290
     0
  9
$INSUNITS
 70
     0
  9
$HYPERLINKBASE
  1

  9
$STYLESHEET
  1

  9
$XEDIT
290
     1
  9
$CEPSNTYPE
380
     0
  9
$PSTYLEMODE
290
     1
  9
$FINGERPRINTGUID
  2
{621619AD-4B1D-4D17-B3DA-F4E69AAF2DFF}
  9
$VERSIONGUID
  2
{432F4F74-26FA-44FD-BDE9-54AAFD2BE03A}
  9
$EXTNAMES
290
     1
  9
$PSVPSCALE
 40
0.0
  9
$OLESTARTUP
290
     0
  0
ENDSEC
  0
SECTION
  2
CLASSES
  0
CLASS
  1
DICTIONARYVAR
  2
AcDbDictionaryVar
  3
ObjectDBX Classes
 90
        0
280
     0
281
     0
  0
CLASS
  1
ACDBDICTIONARYWDFLT
  2
AcDbDictionaryWithDefault
  3
ObjectDBX Classes
 90
        0
280
     0
281
     0
  0
CLASS
  1
ACDBPLACEHOLDER
  2
AcDbPlaceHolder
  3
ObjectDBX Classes
 90
        0
280
     0
281
     0
  0
CLASS
  1
LAYOUT
  2
AcDbLayout
  3
ObjectDBX Classes
 90
        0
280
     0
281
     0
  0
CLASS
  1
MATERIAL
  2
AcDbMaterial
  3
ObjectDBX Classes
 90
     1153
280
     0
281
     0
  0
CLASS
  1
VISUALSTYLE
  2
AcDbVisualStyle
  3
ObjectDBX Classes
 90
     4095
280
     0
281
     0
  0
CLASS
  1
TABLESTYLE
  2
AcDbTableStyle
  3
ObjectDBX Classes
 90
     4095
280
     0
281
     0
  0
CLASS
  1
SCALE
  2
AcDbScale
  3
ObjectDBX Classes
 90
     1153
280
     0
281
     0
  0
CLASS
  1
MLEADERSTYLE
  2
AcDbMLeaderStyle
  3
ACDB_MLEADERSTYLE_CLASS
 90
     4095
280
     0
281
     0
  0
CLASS
  1
EXACXREFPANELOBJECT
  2
ExAcXREFPanelObject
  3
EXAC_ESW
 90
    33793
280
     0
281
     0
  0
CLASS
  1
NPOCOLLECTION
  2
AcDbImpNonPersistentObjectsCollection
  3
ObjectDBX Classes
 90
    33921
280
     0
281
     0
  0
CLASS
  1
CELLSTYLEMAP
  2
AcDbCellStyleMap
  3
ObjectDBX Classes
 90
     1152
280
     0
281
     0
  0
CLASS
  1
SORTENTSTABLE
  2
AcDbSortentsTable
  3
ObjectDBX Classes
 90
        0
280
     0
281
     0
  0
ENDSEC
  0
SECTION
  2
TABLES
  0
TABLE
  2
VPORT
  5
8
102
{ACAD_XDICTIONARY
360
141C8
102
}
330
0
100
AcDbSymbolTable
 70
     1
  0
VPORT
  5
195
330
8
100
AcDbSymbolTableRecord
100
AcDbViewportTableRecord
  2
*Active
 70
     0
 10
0.0
 20
0.0
 11
1.0
 21
1.0
 12
4594.527876107739
 22
6110.795366916635
 13
0.0
 23
0.0
 14
67.0
 24
67.0
 15
67.0
 25
67.0
 16
0.0
 26
0.0
 36
1.0
 17
0.0
 27
0.0
 37
0.0
 40
4229.966819858499
 41
1.359357060849598
 42
50.0
 43
0.0
 44
0.0
 50
0.0
 51
0.0
 71
     0
 72
   100
 73
     1
 74
     1
 75
     0
 76
     0
 77
     0
 78
     0
281
     0
 65
     1
110
0.0
120
0.0
130
0.0
111
1.0
121
0.0
131
0.0
112
0.0
122
1.0
132
0.0
 79
     0
146
0.0
  0
ENDTAB
  0
TABLE
  2
LTYPE
  5
5
330
0
100
AcDbSymbolTable
 70
     3
  0
LTYPE
  5
14
330
5
100
AcDbSymbolTableRecord
100
AcDbLinetypeTableRecord
  2
BYBLOCK
 70
     0
  3

 72
    65
 73
     0
 40
0.0
  0
LTYPE
  5
15
330
5
100
AcDbSymbolTableRecord
100
AcDbLinetypeTableRecord
  2
BYLAYER
 70
     0
  3

 72
    65
 73
     0
 40
0.0
  0
LTYPE
  5
16
330
5
100
AcDbSymbolTableRecord
100
AcDbLinetypeTableRecord
  2
CONTINUOUS
 70
     0
  3
Solid line
 72
    65
 73
     0
 40
0.0
  0
LTYPE
  5
80
330
5
100
AcDbSymbolTableRecord
100
AcDbLinetypeTableRecord
  2
ACAD_ISO02W100
 70
     0
  3
 ISO trazo __ __ __ __ __ __ __ __ __ __ __ __ 
 72
    65
 73
     2
 40
15.0
 49
12.0
 74
     0
 49
-3.0
 74
     0
  0
LTYPE
  5
81
330
5
100
AcDbSymbolTableRecord
100
AcDbLinetypeTableRecord
  2
ACAD_ISO10W100
 70
     0
  3
 ISO trazo, punto __ . __ . __ . __ . __ . __ .
 72
    65
 73
     4
 40
18.5
 49
12.0
 74
     0
 49
-3.0
 74
     0
 49
0.5
 74
     0
 49
-3.0
 74
     0
  0
ENDTAB
  0
TABLE
  2
LAYER
  5
2
102
{ACAD_XDICTIONARY
360
1E7
102
}
330
0
100
AcDbSymbolTable
 70
    10
  0
LAYER
  5
F
102
{ACAD_XDICTIONARY
360
141B5
102
}
330
2
100
AcDbSymbolTableRecord
100
AcDbLayerTableRecord
  2
0
 70
     0
 62
     7
  6
CONTINUOUS
370
    -3
390
90
  0
LAYER
  5
83
102
{ACAD_XDICTIONARY
360
141B7
102
}
330
2
100
AcDbSymbolTableRecord
100
AcDbLayerTableRecord
  2
OCULTES
 70
     0
 62
    21
  6
ACAD_ISO02W100
370
    13
390
90
  0
LAYER
  5
84
102
{ACAD_XDICTIONARY
360
141B9
102
}
330
2
100
AcDbSymbolTableRecord
100
AcDbLayerTableRecord
  2
EIXOS
 70
     0
 62
    10
  6
ACAD_ISO10W100
370
    13
390
90
  0
LAYER
  5
85
102
{ACAD_XDICTIONARY
360
141BB
102
}
330
2
100
AcDbSymbolTableRecord
100
AcDbLayerTableRecord
  2
COTES
 70
     0
 62
   170
  6
CONTINUOUS
370
    13
390
90
  0
LAYER
  5
86
102
{ACAD_XDICTIONARY
360
141BD
102
}
330
2
100
AcDbSymbolTableRecord
100
AcDbLayerTableRecord
  2
3D
 70
     0
 62
    30
  6
CONTINUOUS
370
    13
390
90
  0
LAYER
  5
98
102
{ACAD_XDICTIONARY
360
141BF
102
}
330
2
100
AcDbSymbolTableRecord
100
AcDbLayerTableRecord
  2
TEXT
 70
     0
 62
     7
  6
CONTINUOUS
370
    13
390
90
  0
LAYER
  5
1DF
102
{ACAD_XDICTIONARY
360
1E0
102
}
330
2
100
AcDbSymbolTableRecord
100
AcDbLayerTableRecord
  2
Hidden (ISO)
 70
     0
 62
     9
  6
ACAD_ISO02W100
370
    18
390
90
  0
LAYER
  5
1E1
102
{ACAD_XDICTIONARY
360
1E2
102
}
330
2
100
AcDbSymbolTableRecord
100
AcDbLayerTableRecord
  2
Hidden Narrow (ISO)
 70
     0
 62
     9
  6
CONTINUOUS
370
    18
390
90
  0
LAYER
  5
1E3
102
{ACAD_XDICTIONARY
360
1E4
102
}
330
2
100
AcDbSymbolTableRecord
100
AcDbLayerTableRecord
  2
Visible (ISO)
 70
     0
 62
     7
  6
CONTINUOUS
370
    18
390
90
  0
LAYER
  5
1E5
102
{ACAD_XDICTIONARY
360
1E6
102
}
330
2
100
AcDbSymbolTableRecord
100
AcDbLayerTableRecord
  2
Visible Narrow (ISO)
 70
     0
 62
     7
  6
CONTINUOUS
370
    18
390
90
  0
ENDTAB
  0
TABLE
  2
STYLE
  5
3
330
0
100
AcDbSymbolTable
 70
     2
  0
STYLE
  5
10
330
3
100
AcDbSymbolTableRecord
100
AcDbTextStyleTableRecord
  2
STANDARD
 70
     0
 40
0.0
 41
1.0
 50
0.0
 71
     0
 42
16.83501683501684
  3
ISOCP
  4

  0
STYLE
  5
145CC
330
3
100
AcDbSymbolTableRecord
100
AcDbTextStyleTableRecord
  2
noxifer 2_5 (ISO)
 70
     0
 40
0.0
 41
1.0
 50
0.0
 71
     0
 42
0.2
  3
TAHOMA.TTF
  4

1001
ACAD
1000
Tahoma
1071
      256
  0
ENDTAB
  0
TABLE
  2
VIEW
  5
6
330
0
100
AcDbSymbolTable
 70
     0
  0
ENDTAB
  0
TABLE
  2
UCS
  5
7
330
0
100
AcDbSymbolTable
 70
     0
  0
ENDTAB
  0
TABLE
  2
APPID
  5
9
330
0
100
AcDbSymbolTable
 70
     4
  0
APPID
  5
11
330
9
100
AcDbSymbolTableRecord
100
AcDbRegAppTableRecord
  2
ACAD
 70
     0
  0
APPID
  5
A65F
330
9
100
AcDbSymbolTableRecord
100
AcDbRegAppTableRecord
  2
ACAD_EXEMPT_FROM_CAD_STANDARDS
 70
     0
  0
APPID
  5
141F8
330
9
100
AcDbSymbolTableRecord
100
AcDbRegAppTableRecord
  2
ACAD_MLEADERVER
 70
     0
  0
APPID
  5
2154A
330
9
100
AcDbSymbolTableRecord
100
AcDbRegAppTableRecord
  2
ACAD_PSEXT
 70
     0
  0
ENDTAB
  0
TABLE
  2
DIMSTYLE
  5
A
330
0
100
AcDbSymbolTable
 70
     3
100
AcDbDimStyleTable
 71
     1
340
7D
  0
DIMSTYLE
105
7D
330
A
100
AcDbSymbolTableRecord
100
AcDbDimStyleTableRecord
  2
ISO-25_WS
 70
     0
 40
6.734006734006732
 41
2.5
 42
0.625
 43
3.75
 44
1.25
 73
     0
 74
     0
 77
     1
 78
     8
140
2.5
141
2.5
143
0.0394
147
0.625
171
     4
172
     1
273
     8
274
     4
340
10
  0
DIMSTYLE
105
1446C
330
A
100
AcDbSymbolTableRecord
100
AcDbDimStyleTableRecord
  2
Standard
 70
     0
340
10
  0
DIMSTYLE
105
145CD
330
A
100
AcDbSymbolTableRecord
100
AcDbDimStyleTableRecord
  2
Default (ISO)
 70
     0
 40
3.0
 41
2.5
 42
2.0
 43
5.999999999999999
 44
3.174999999999998
 45
0.00000001
 46
10.0
 73
     0
 74
     0
 77
     1
 78
     8
 79
     2
140
2.5
143
0.03937
146
1.402080059051511
147
0.762
171
     3
172
     1
176
   256
177
   256
178
   256
179
     2
271
     2
272
     2
274
     3
278
    44
340
145CC
371
    -1
372
    -1
  0
ENDTAB
  0
TABLE
  2
BLOCK_RECORD
  5
1
330
0
100
AcDbSymbolTable
 70
     0
  0
BLOCK_RECORD
  5
1A
102
{ACAD_XDICTIONARY
360
154D5
102
}
330
1
100
AcDbSymbolTableRecord
100
AcDbBlockTableRecord
  2
*MODEL_SPACE
340
93
  0
BLOCK_RECORD
  5
17
330
1
100
AcDbSymbolTableRecord
100
AcDbBlockTableRecord
  2
*PAPER_SPACE
340
94
  0
ENDTAB
  0
ENDSEC
  0
SECTION
  2
BLOCKS
  0
BLOCK
  5
1B
330
1A
100
AcDbEntity
  8
0
100
AcDbBlockBegin
  2
*MODEL_SPACE
 70
     0
 10
0.0
 20
0.0
 30
0.0
  3
*MODEL_SPACE
  1

  0
ENDBLK
  5
1C
330
1A
100
AcDbEntity
  8
0
100
AcDbBlockEnd
  0
BLOCK
  5
18
330
17
100
AcDbEntity
 67
     1
  8
0
100
AcDbBlockBegin
  2
*PAPER_SPACE
 70
     0
 10
0.0
 20
0.0
 30
0.0
  3
*PAPER_SPACE
  1

  0
ENDBLK
  5
19
330
17
100
AcDbEntity
 67
     1
  8
0
100
AcDbBlockEnd
  0
ENDSEC
  0
SECTION
  2
ENTITIES
  0
LINE
  5
5860
330
1A
100
AcDbEntity
  8
0
100
AcDbLine
 10
3814.325820805539
 20
8210.148178108067
 30
0.0
 11
5376.420756389876
 21
8210.148178108067
 31
0.0
  0
LINE
  5
5863
330
1A
100
AcDbEntity
  8
0
100
AcDbLine
 10
3814.325820805539
 20
8210.148178108067
 30
0.0
 11
5376.420756389876
 21
8210.148178108067
 31
0.0
  0
LINE
  5
5864
330
1A
100
AcDbEntity
  8
0
100
AcDbLine
 10
4204.849550476884
 20
8210.148178108067
 30
0.0
 11
4204.849550476884
 21
7160.475844155944
 31
0.0
  0
LINE
  5
5865
330
1A
100
AcDbEntity
  8
0
100
AcDbLine
 10
4204.849550476884
 20
8210.148178108067
 30
0.0
 11
4204.849550476884
 21
8110.148178108067
 31
0.0
  0
LINE
  5
5866
330
1A
100
AcDbEntity
  8
0
100
AcDbLine
 10
5376.420756389876
 20
8110.148178108067
 30
0.0
 11
3814.325820805539
 21
8110.148178108067
 31
0.0
  0
LINE
  5
5867
330
1A
100
AcDbEntity
  8
0
100
AcDbLine
 10
5376.420756389876
 20
8210.148178108067
 30
0.0
 11
5376.420756389876
 21
7160.475844155944
 31
0.0
  0
LINE
  5
5868
330
1A
100
AcDbEntity
  8
0
100
AcDbLine
 10
5376.420756389876
 20
8210.148178108067
 30
0.0
 11
3814.325820805539
 21
8210.148178108067
 31
0.0
  0
LINE
  5
5869
330
1A
100
AcDbEntity
  8
0
100
AcDbLine
 10
3814.325820805539
 20
8210.148178108067
 30
0.0
 11
3814.325820805539
 21
8110.148178108067
 31
0.0
  0
LINE
  5
586A
330
1A
100
AcDbEntity
  8
0
100
AcDbLine
 10
3814.325820805539
 20
8110.148178108067
 30
0.0
 11
3814.325820805539
 21
7160.475844155944
 31
0.0
  0
LINE
  5
586B
330
1A
100
AcDbEntity
  8
0
100
AcDbLine
 10
3814.325820805539
 20
7160.475844155944
 30
0.0
 11
5376.420756389876
 21
7160.475844155944
 31
0.0
  0
MTEXT
  5
586C
330
1A
100
AcDbEntity
  8
0
100
AcDbMText
 10
4240.624085755555
 20
8081.745172270267
 30
0.0
 40
15.0
 41
782.3471997944232
 71
     1
 72
     5
  1
Vistas
 73
     1
 44
1.0
1001
ACAD
1000
ACAD_MTEXT_COLUMN_INFO_BEGIN
1070
    75
1070
     2
1070
    79
1070
     0
1070
    76
1070
     1
1070
    78
1070
     0
1070
    48
1040
782.3471997944232
1070
    49
1040
84.1750841750842
1070
    50
1070
     1
1040
0.0
1000
ACAD_MTEXT_COLUMN_INFO_END
1000
MTEXTBEGIN
1070
    73
1070
     1
1070
    44
1040
1.0
1070
    74
1070
     0
1000
MTEXTEND
  0
MTEXT
  5
586D
330
1A
100
AcDbEntity
  8
0
100
AcDbMText
 10
3847.272883003864
 20
8081.350966471157
 30
0.0
 40
15.0
 41
782.3471997944232
 71
     1
 72
     5
  1
Perspectiva
 73
     1
 44
1.0
1001
ACAD
1000
ACAD_MTEXT_COLUMN_INFO_BEGIN
1070
    75
1070
     2
1070
    79
1070
     0
1070
    76
1070
     1
1070
    78
1070
     0
1070
    48
1040
782.3471997944232
1070
    49
1040
84.1750841750842
1070
    50
1070
     1
1040
0.0
1000
ACAD_MTEXT_COLUMN_INFO_END
1000
MTEXTBEGIN
1070
    73
1070
     1
1070
    44
1040
1.0
1070
    74
1070
     0
1000
MTEXTEND
  0
LINE
  5
586E
330
1A
100
AcDbEntity
  8
0
100
AcDbLine
 10
3814.325820805539
 20
7160.475844155944
 30
0.0
 11
5376.420756389876
 21
7160.475844155944
 31
0.0
  0
LINE
  5
586F
330
1A
100
AcDbEntity
  8
0
100
AcDbLine
 10
4204.849550476884
 20
7160.475844155944
 30
0.0
 11
4204.849550476884
 21
6110.803510203822
 31
0.0
  0
LINE
  5
5870
330
1A
100
AcDbEntity
  8
0
100
AcDbLine
 10
4204.849550476884
 20
7160.475844155944
 30
0.0
 11
4204.849550476884
 21
7060.475844155944
 31
0.0
  0
LINE
  5
5871
330
1A
100
AcDbEntity
  8
0
100
AcDbLine
 10
5376.420756389876
 20
7060.475844155944
 30
0.0
 11
3814.325820805539
 21
7060.475844155944
 31
0.0
  0
LINE
  5
5872
330
1A
100
AcDbEntity
  8
0
100
AcDbLine
 10
5376.420756389876
 20
7160.475844155944
 30
0.0
 11
5376.420756389876
 21
6110.803510203822
 31
0.0
  0
LINE
  5
5873
330
1A
100
AcDbEntity
  8
0
100
AcDbLine
 10
5376.420756389876
 20
7160.475844155944
 30
0.0
 11
3814.325820805539
 21
7160.475844155944
 31
0.0
  0
LINE
  5
5874
330
1A
100
AcDbEntity
  8
0
100
AcDbLine
 10
3814.325820805539
 20
7160.475844155944
 30
0.0
 11
3814.325820805539
 21
7060.475844155944
 31
0.0
  0
LINE
  5
5875
330
1A
100
AcDbEntity
  8
0
100
AcDbLine
 10
3814.325820805539
 20
7060.475844155944
 30
0.0
 11
3814.325820805539
 21
6110.803510203822
 31
0.0
  0
LINE
  5
5876
330
1A
100
AcDbEntity
  8
0
100
AcDbLine
 10
3814.325820805539
 20
6110.803510203822
 30
0.0
 11
5376.420756389876
 21
6110.803510203822
 31
0.0
  0
MTEXT
  5
5877
330
1A
100
AcDbEntity
  8
0
100
AcDbMText
 10
4240.624085755555
 20
7032.072838318145
 30
0.0
 40
15.0
 41
782.3471997944232
 71
     1
 72
     5
  1
Vistas
 73
     1
 44
1.0
1001
ACAD
1000
ACAD_MTEXT_COLUMN_INFO_BEGIN
1070
    75
1070
     2
1070
    79
1070
     0
1070
    76
1070
     1
1070
    78
1070
     0
1070
    48
1040
782.3471997944232
1070
    49
1040
84.1750841750842
1070
    50
1070
     1
1040
0.0
1000
ACAD_MTEXT_COLUMN_INFO_END
1000
MTEXTBEGIN
1070
    73
1070
     1
1070
    44
1040
1.0
1070
    74
1070
     0
1000
MTEXTEND
  0
MTEXT
  5
5878
330
1A
100
AcDbEntity
  8
0
100
AcDbMText
 10
3847.272883003864
 20
7031.678632519035
 30
0.0
 40
15.0
 41
782.3471997944232
 71
     1
 72
     5
  1
Perspectiva
 73
     1
 44
1.0
1001
ACAD
1000
ACAD_MTEXT_COLUMN_INFO_BEGIN
1070
    75
1070
     2
1070
    79
1070
     0
1070
    76
1070
     1
1070
    78
1070
     0
1070
    48
1040
782.3471997944232
1070
    49
1040
84.1750841750842
1070
    50
1070
     1
1040
0.0
1000
ACAD_MTEXT_COLUMN_INFO_END
1000
MTEXTBEGIN
1070
    73
1070
     1
1070
    44
1040
1.0
1070
    74
1070
     0
1000
MTEXTEND
  0
LINE
  5
5879
330
1A
100
AcDbEntity
  8
0
100
AcDbLine
 10
3814.325820805539
 20
6110.803510203822
 30
0.0
 11
5376.420756389876
 21
6110.803510203822
 31
0.0
  0
LINE
  5
587A
330
1A
100
AcDbEntity
  8
0
100
AcDbLine
 10
4204.849550476884
 20
6110.803510203822
 30
0.0
 11
4204.849550476884
 21
5061.131176251699
 31
0.0
  0
LINE
  5
587B
330
1A
100
AcDbEntity
  8
0
100
AcDbLine
 10
4204.849550476884
 20
6110.803510203822
 30
0.0
 11
4204.849550476884
 21
6010.803510203821
 31
0.0
  0
LINE
  5
587C
330
1A
100
AcDbEntity
  8
0
100
AcDbLine
 10
5376.420756389876
 20
6010.803510203821
 30
0.0
 11
3814.325820805539
 21
6010.803510203821
 31
0.0
  0
LINE
  5
587D
330
1A
100
AcDbEntity
  8
0
100
AcDbLine
 10
5376.420756389876
 20
6110.803510203822
 30
0.0
 11
5376.420756389876
 21
5061.131176251699
 31
0.0
  0
LINE
  5
587E
330
1A
100
AcDbEntity
  8
0
100
AcDbLine
 10
5376.420756389876
 20
6110.803510203822
 30
0.0
 11
3814.325820805539
 21
6110.803510203822
 31
0.0
  0
LINE
  5
587F
330
1A
100
AcDbEntity
  8
0
100
AcDbLine
 10
3814.325820805539
 20
6110.803510203822
 30
0.0
 11
3814.325820805539
 21
6010.803510203821
 31
0.0
  0
LINE
  5
5880
330
1A
100
AcDbEntity
  8
0
100
AcDbLine
 10
3814.325820805539
 20
6010.803510203821
 30
0.0
 11
3814.325820805539
 21
5061.131176251699
 31
0.0
  0
LINE
  5
5881
330
1A
100
AcDbEntity
  8
0
100
AcDbLine
 10
3814.325820805539
 20
5061.131176251699
 30
0.0
 11
5376.420756389876
 21
5061.131176251699
 31
0.0
  0
MTEXT
  5
5882
330
1A
100
AcDbEntity
  8
0
100
AcDbMText
 10
4240.624085755555
 20
5982.400504366022
 30
0.0
 40
15.0
 41
782.3471997944232
 71
     1
 72
     5
  1
Vistas
 73
     1
 44
1.0
1001
ACAD
1000
ACAD_MTEXT_COLUMN_INFO_BEGIN
1070
    75
1070
     2
1070
    79
1070
     0
1070
    76
1070
     1
1070
    78
1070
     0
1070
    48
1040
782.3471997944232
1070
    49
1040
84.1750841750842
1070
    50
1070
     1
1040
0.0
1000
ACAD_MTEXT_COLUMN_INFO_END
1000
MTEXTBEGIN
1070
    73
1070
     1
1070
    44
1040
1.0
1070
    74
1070
     0
1000
MTEXTEND
  0
MTEXT
  5
5883
330
1A
100
AcDbEntity
  8
0
100
AcDbMText
 10
3847.272883003864
 20
5982.006298566913
 30
0.0
 40
15.0
 41
782.3471997944232
 71
     1
 72
     5
  1
Perspectiva
 73
     1
 44
1.0
1001
ACAD
1000
ACAD_MTEXT_COLUMN_INFO_BEGIN
1070
    75
1070
     2
1070
    79
1070
     0
1070
    76
1070
     1
1070
    78
1070
     0
1070
    48
1040
782.3471997944232
1070
    49
1040
84.1750841750842
1070
    50
1070
     1
1040
0.0
1000
ACAD_MTEXT_COLUMN_INFO_END
1000
MTEXTBEGIN
1070
    73
1070
     1
1070
    44
1040
1.0
1070
    74
1070
     0
1000
MTEXTEND
  0
LINE
  5
5884
330
1A
100
AcDbEntity
  8
0
100
AcDbLine
 10
3814.325820805539
 20
5061.131176251699
 30
0.0
 11
5376.420756389876
 21
5061.131176251699
 31
0.0
  0
LINE
  5
5885
330
1A
100
AcDbEntity
  8
0
100
AcDbLine
 10
4204.849550476884
 20
5061.131176251699
 30
0.0
 11
4204.849550476884
 21
4011.458842299576
 31
0.0
  0
LINE
  5
5886
330
1A
100
AcDbEntity
  8
0
100
AcDbLine
 10
4204.849550476884
 20
5061.131176251699
 30
0.0
 11
4204.849550476884
 21
4961.131176251699
 31
0.0
  0
LINE
  5
5887
330
1A
100
AcDbEntity
  8
0
100
AcDbLine
 10
5376.420756389876
 20
4961.131176251699
 30
0.0
 11
3814.325820805539
 21
4961.131176251699
 31
0.0
  0
LINE
  5
5888
330
1A
100
AcDbEntity
  8
0
100
AcDbLine
 10
5376.420756389876
 20
5061.131176251699
 30
0.0
 11
5376.420756389876
 21
4011.458842299576
 31
0.0
  0
LINE
  5
5889
330
1A
100
AcDbEntity
  8
0
100
AcDbLine
 10
5376.420756389876
 20
5061.131176251699
 30
0.0
 11
3814.325820805539
 21
5061.131176251699
 31
0.0
  0
LINE
  5
588A
330
1A
100
AcDbEntity
  8
0
100
AcDbLine
 10
3814.325820805539
 20
5061.131176251699
 30
0.0
 11
3814.325820805539
 21
4961.131176251699
 31
0.0
  0
LINE
  5
588B
330
1A
100
AcDbEntity
  8
0
100
AcDbLine
 10
3814.325820805539
 20
4961.131176251699
 30
0.0
 11
3814.325820805539
 21
4011.458842299576
 31
0.0
  0
LINE
  5
588C
330
1A
100
AcDbEntity
  8
0
100
AcDbLine
 10
3814.325820805539
 20
4011.458842299576
 30
0.0
 11
5376.420756389876
 21
4011.458842299576
 31
0.0
  0
MTEXT
  5
588D
330
1A
100
AcDbEntity
  8
0
100
AcDbMText
 10
4240.624085755555
 20
4932.7281704139
 30
0.0
 40
15.0
 41
782.3471997944232
 71
     1
 72
     5
  1
Vistas
 73
     1
 44
1.0
1001
ACAD
1000
ACAD_MTEXT_COLUMN_INFO_BEGIN
1070
    75
1070
     2
1070
    79
1070
     0
1070
    76
1070
     1
1070
    78
1070
     0
1070
    48
1040
782.3471997944232
1070
    49
1040
84.1750841750842
1070
    50
1070
     1
1040
0.0
1000
ACAD_MTEXT_COLUMN_INFO_END
1000
MTEXTBEGIN
1070
    73
1070
     1
1070
    44
1040
1.0
1070
    74
1070
     0
1000
MTEXTEND
  0
MTEXT
  5
588E
330
1A
100
AcDbEntity
  8
0
100
AcDbMText
 10
3847.272883003864
 20
4932.333964614791
 30
0.0
 40
15.0
 41
782.3471997944232
 71
     1
 72
     5
  1
Perspectiva
 73
     1
 44
1.0
1001
ACAD
1000
ACAD_MTEXT_COLUMN_INFO_BEGIN
1070
    75
1070
     2
1070
    79
1070
     0
1070
    76
1070
     1
1070
    78
1070
     0
1070
    48
1040
782.3471997944232
1070
    49
1040
84.1750841750842
1070
    50
1070
     1
1040
0.0
1000
ACAD_MTEXT_COLUMN_INFO_END
1000
MTEXTBEGIN
1070
    73
1070
     1
1070
    44
1040
1.0
1070
    74
1070
     0
1000
MTEXTEND
  0
MTEXT
  5
61A7
330
1A
100
AcDbEntity
  8
0
100
AcDbMText
 10
4228.001364746071
 20
8171.641439741069
 30
0.0
 40
25.0
 41
782.3471997944232
 71
     1
 72
     5
  1
Descripción familia: COFI
 73
     1
 44
1.0
1001
ACAD
1000
ACAD_MTEXT_COLUMN_INFO_BEGIN
1070
    75
1070
     2
1070
    79
1070
     0
1070
    76
1070
     1
1070
    78
1070
     0
1070
    48
1040
782.3471997944232
1070
    49
1040
84.1750841750842
1070
    50
1070
     1
1040
0.0
1000
ACAD_MTEXT_COLUMN_INFO_END
1000
MTEXTBEGIN
1070
    73
1070
     1
1070
    44
1040
1.0
1070
    74
1070
     0
1000
MTEXTEND
  0
MTEXT
  5
61A8
330
1A
100
AcDbEntity
  8
0
100
AcDbMText
 10
3837.477635074725
 20
8173.726573357578
 30
0.0
 40
30.0
 41
348.7495265615799
 71
     1
 72
     5
  1
{\H0.83333x;Código} {\fTahoma|b0|i0|c0|p34;COFI-TL120}
 73
     1
 44
1.0
1001
ACAD
1000
ACAD_MTEXT_COLUMN_INFO_BEGIN
1070
    75
1070
     2
1070
    79
1070
     0
1070
    76
1070
     1
1070
    78
1070
     0
1070
    48
1040
348.7495265615799
1070
    49
1040
84.1750841750842
1070
    50
1070
     1
1040
0.0
1000
ACAD_MTEXT_COLUMN_INFO_END
1000
MTEXTBEGIN
1070
    73
1070
     1
1070
    44
1040
1.0
1070
    74
1070
     0
1000
MTEXTEND
  0
MTEXT
  5
61A9
330
1A
100
AcDbEntity
  8
0
100
AcDbMText
 10
4228.001364746071
 20
7121.969105788946
 30
0.0
 40
25.0
 41
782.3471997944232
 71
     1
 72
     5
  1
Descripción familia: COFI
 73
     1
 44
1.0
1001
ACAD
1000
ACAD_MTEXT_COLUMN_INFO_BEGIN
1070
    75
1070
     2
1070
    79
1070
     0
1070
    76
1070
     1
1070
    78
1070
     0
1070
    48
1040
782.3471997944232
1070
    49
1040
84.1750841750842
1070
    50
1070
     1
1040
0.0
1000
ACAD_MTEXT_COLUMN_INFO_END
1000
MTEXTBEGIN
1070
    73
1070
     1
1070
    44
1040
1.0
1070
    74
1070
     0
1000
MTEXTEND
  0
MTEXT
  5
61AA
330
1A
100
AcDbEntity
  8
0
100
AcDbMText
 10
3837.477635074725
 20
7124.054239405457
 30
0.0
 40
30.0
 41
348.7495265615799
 71
     1
 72
     5
  1
{\H0.83333x;Código} {\fTahoma|b0|i0|c0|p34;COFI-TL168}
 73
     1
 44
1.0
1001
ACAD
1000
ACAD_MTEXT_COLUMN_INFO_BEGIN
1070
    75
1070
     2
1070
    79
1070
     0
1070
    76
1070
     1
1070
    78
1070
     0
1070
    48
1040
348.7495265615799
1070
    49
1040
84.1750841750842
1070
    50
1070
     1
1040
0.0
1000
ACAD_MTEXT_COLUMN_INFO_END
1000
MTEXTBEGIN
1070
    73
1070
     1
1070
    44
1040
1.0
1070
    74
1070
     0
1000
MTEXTEND
  0
MTEXT
  5
61AB
330
1A
100
AcDbEntity
  8
0
100
AcDbMText
 10
4228.001364746071
 20
6072.296771836824
 30
0.0
 40
25.0
 41
782.3471997944232
 71
     1
 72
     5
  1
Descripción familia: COFI
 73
     1
 44
1.0
1001
ACAD
1000
ACAD_MTEXT_COLUMN_INFO_BEGIN
1070
    75
1070
     2
1070
    79
1070
     0
1070
    76
1070
     1
1070
    78
1070
     0
1070
    48
1040
782.3471997944232
1070
    49
1040
84.1750841750842
1070
    50
1070
     1
1040
0.0
1000
ACAD_MTEXT_COLUMN_INFO_END
1000
MTEXTBEGIN
1070
    73
1070
     1
1070
    44
1040
1.0
1070
    74
1070
     0
1000
MTEXTEND
  0
MTEXT
  5
61AC
330
1A
100
AcDbEntity
  8
0
100
AcDbMText
 10
3837.477635074725
 20
6074.381905453332
 30
0.0
 40
30.0
 41
348.7495265615799
 71
     1
 72
     5
  1
{\H0.83333x;Código} {\fTahoma|b0|i0|c0|p34;COFI-TL210}
 73
     1
 44
1.0
1001
ACAD
1000
ACAD_MTEXT_COLUMN_INFO_BEGIN
1070
    75
1070
     2
1070
    79
1070
     0
1070
    76
1070
     1
1070
    78
1070
     0
1070
    48
1040
348.7495265615799
1070
    49
1040
84.1750841750842
1070
    50
1070
     1
1040
0.0
1000
ACAD_MTEXT_COLUMN_INFO_END
1000
MTEXTBEGIN
1070
    73
1070
     1
1070
    44
1040
1.0
1070
    74
1070
     0
1000
MTEXTEND
  0
MTEXT
  5
61AD
330
1A
100
AcDbEntity
  8
0
100
AcDbMText
 10
4228.001364746071
 20
5022.624437884701
 30
0.0
 40
25.0
 41
782.3471997944232
 71
     1
 72
     5
  1
Descripción familia: COFI
 73
     1
 44
1.0
1001
ACAD
1000
ACAD_MTEXT_COLUMN_INFO_BEGIN
1070
    75
1070
     2
1070
    79
1070
     0
1070
    76
1070
     1
1070
    78
1070
     0
1070
    48
1040
782.3471997944232
1070
    49
1040
84.1750841750842
1070
    50
1070
     1
1040
0.0
1000
ACAD_MTEXT_COLUMN_INFO_END
1000
MTEXTBEGIN
1070
    73
1070
     1
1070
    44
1040
1.0
1070
    74
1070
     0
1000
MTEXTEND
  0
MTEXT
  5
61AE
330
1A
100
AcDbEntity
  8
0
100
AcDbMText
 10
3837.477635074725
 20
5024.709571501211
 30
0.0
 40
30.0
 41
348.7495265615799
 71
     1
 72
     5
  1
{\H0.83333x;Código} {\fTahoma|b0|i0|c0|p34;COFI-TL243}
 73
     1
 44
1.0
1001
ACAD
1000
ACAD_MTEXT_COLUMN_INFO_BEGIN
1070
    75
1070
     2
1070
    79
1070
     0
1070
    76
1070
     1
1070
    78
1070
     0
1070
    48
1040
348.7495265615799
1070
    49
1040
84.1750841750842
1070
    50
1070
     1
1040
0.0
1000
ACAD_MTEXT_COLUMN_INFO_END
1000
MTEXTBEGIN
1070
    73
1070
     1
1070
    44
1040
1.0
1070
    74
1070
     0
1000
MTEXTEND
  0
CIRCLE
  5
61AF
330
1A
100
AcDbEntity
  8
Visible (ISO)
100
AcDbCircle
 10
4594.19107410186
 20
7724.34173608092
 30
0.0
 40
7.0
  0
CIRCLE
  5
61B0
330
1A
100
AcDbEntity
  8
Visible (ISO)
100
AcDbCircle
 10
4594.19107410186
 20
7694.341736080921
 30
0.0
 40
7.0
  0
CIRCLE
  5
61B1
330
1A
100
AcDbEntity
  8
Visible (ISO)
100
AcDbCircle
 10
4594.19107410186
 20
7664.34173608092
 30
0.0
 40
7.0
  0
LINE
  5
61B2
330
1A
100
AcDbEntity
  8
Visible (ISO)
100
AcDbLine
 10
4609.19107410186
 20
7644.341736080921
 30
0.0
 11
4579.19107410186
 21
7644.341736080921
 31
0.0
  0
ARC
  5
61B3
330
1A
100
AcDbEntity
  8
Visible (ISO)
100
AcDbCircle
 10
4579.19107410186
 20
7649.34173608092
 30
0.0
 40
4.999999999999991
100
AcDbArc
 50
180.0
 51
270.0
  0
LINE
  5
61B4
330
1A
100
AcDbEntity
  8
Visible (ISO)
100
AcDbLine
 10
4574.19107410186
 20
7649.34173608092
 30
0.0
 11
4574.19107410186
 21
7731.424381340281
 31
0.0
  0
LINE
  5
61B5
330
1A
100
AcDbEntity
  8
Visible (ISO)
100
AcDbLine
 10
4614.191074101859
 20
7731.424381340281
 30
0.0
 11
4614.191074101859
 21
7649.34173608092
 31
0.0
  0
ARC
  5
61B6
330
1A
100
AcDbEntity
  8
Visible (ISO)
100
AcDbCircle
 10
4609.19107410186
 20
7649.34173608092
 30
0.0
 40
5.000000000000006
100
AcDbArc
 50
270.0
 51
0.0
  0
LINE
  5
61B7
330
1A
100
AcDbEntity
  8
Visible (ISO)
100
AcDbLine
 10
4671.576472027476
 20
7764.341736080922
 30
0.0
 11
4663.576472027476
 21
7764.341736080922
 31
0.0
  0
LINE
  5
61B8
330
1A
100
AcDbEntity
  8
Visible (ISO)
100
AcDbLine
 10
4663.576472027473
 20
7761.547534406422
 30
0.0
 11
4663.576472027473
 21
7761.984613044482
 31
0.0
  0
LINE
  5
61B9
330
1A
100
AcDbEntity
  8
Visible (ISO)
100
AcDbLine
 10
4663.576472027476
 20
7764.278814718982
 30
0.0
 11
4663.576472027476
 21
7764.341736080922
 31
0.0
  0
LINE
  5
61BA
330
1A
100
AcDbEntity
  8
Visible (ISO)
100
AcDbLine
 10
4671.576472027476
 20
7764.341736080922
 30
0.0
 11
4671.576472027476
 21
7764.278814718982
 31
0.0
  0
LINE
  5
61BB
330
1A
100
AcDbEntity
  8
Visible (ISO)
100
AcDbLine
 10
4671.576472027473
 20
7761.984613044482
 30
0.0
 11
4671.576472027473
 21
7761.547534406422
 31
0.0
  0
LINE
  5
61BC
330
1A
100
AcDbEntity
  8
Visible (ISO)
100
AcDbLine
 10
4663.576472027473
 20
7644.341736080921
 30
0.0
 11
4663.576472027469
 21
7649.34173608092
 31
0.0
  0
LINE
  5
61BD
330
1A
100
AcDbEntity
  8
Visible (ISO)
100
AcDbLine
 10
4663.576472027469
 20
7731.424381340281
 30
0.0
 11
4663.576472027469
 21
7649.34173608092
 31
0.0
  0
LINE
  5
61BE
330
1A
100
AcDbEntity
  8
Visible (ISO)
100
AcDbLine
 10
4663.576472027469
 20
7731.424381340281
 30
0.0
 11
4663.576472027473
 21
7735.343110722843
 31
0.0
  0
LINE
  5
61BF
330
1A
100
AcDbEntity
  8
Visible (ISO)
100
AcDbLine
 10
4663.576472027476
 20
7743.440911295768
 30
0.0
 11
4663.576472027473
 21
7735.343110722843
 31
0.0
  0
LINE
  5
61C0
330
1A
100
AcDbEntity
  8
Visible (ISO)
100
AcDbLine
 10
4663.576472027476
 20
7745.792148925305
 30
0.0
 11
4663.576472027476
 21
7743.440911295768
 31
0.0
  0
LINE
  5
61C1
330
1A
100
AcDbEntity
  8
Visible (ISO)
100
AcDbLine
 10
4663.576472027476
 20
7750.741736080922
 30
0.0
 11
4663.576472027476
 21
7745.792148925305
 31
0.0
  0
LINE
  5
61C2
330
1A
100
AcDbEntity
  8
Visible (ISO)
100
AcDbLine
 10
4663.576472027476
 20
7751.24173608092
 30
0.0
 11
4663.576472027476
 21
7750.741736080922
 31
0.0
  0
LINE
  5
61C3
330
1A
100
AcDbEntity
  8
Visible (ISO)
100
AcDbLine
 10
4663.576472027473
 20
7751.24173608092
 30
0.0
 11
4663.576472027473
 21
7752.74173608092
 31
0.0
  0
LINE
  5
61C4
330
1A
100
AcDbEntity
  8
Visible (ISO)
100
AcDbLine
 10
4663.576472027473
 20
7761.547534406422
 30
0.0
 11
4663.576472027473
 21
7752.74173608092
 31
0.0
  0
LINE
  5
61C5
330
1A
100
AcDbEntity
  8
Visible (ISO)
100
AcDbLine
 10
4663.576472027476
 20
7764.278814718982
 30
0.0
 11
4663.576472027473
 21
7761.984613044482
 31
0.0
  0
LINE
  5
61C6
330
1A
100
AcDbEntity
  8
Visible (ISO)
100
AcDbLine
 10
4671.576472027473
 20
7761.984613044482
 30
0.0
 11
4671.576472027476
 21
7764.278814718982
 31
0.0
  0
LINE
  5
61C7
330
1A
100
AcDbEntity
  8
Visible (ISO)
100
AcDbLine
 10
4671.576472027473
 20
7752.74173608092
 30
0.0
 11
4671.576472027473
 21
7761.547534406422
 31
0.0
  0
LINE
  5
61C8
330
1A
100
AcDbEntity
  8
Visible (ISO)
100
AcDbLine
 10
4663.576472027473
 20
7644.341736080921
 30
0.0
 11
4671.576472027473
 21
7644.341736080921
 31
0.0
  0
LINE
  5
61C9
330
1A
100
AcDbEntity
  8
Visible (ISO)
100
AcDbLine
 10
4671.576472027469
 20
7649.34173608092
 30
0.0
 11
4671.576472027473
 21
7644.341736080921
 31
0.0
  0
LINE
  5
61CA
330
1A
100
AcDbEntity
  8
Visible (ISO)
100
AcDbLine
 10
4671.576472027469
 20
7649.34173608092
 30
0.0
 11
4671.576472027469
 21
7731.424381340281
 31
0.0
  0
LINE
  5
61CB
330
1A
100
AcDbEntity
  8
Visible (ISO)
100
AcDbLine
 10
4671.576472027473
 20
7735.343110722843
 30
0.0
 11
4671.576472027469
 21
7731.424381340281
 31
0.0
  0
LINE
  5
61CC
330
1A
100
AcDbEntity
  8
Visible (ISO)
100
AcDbLine
 10
4671.576472027473
 20
7735.343110722843
 30
0.0
 11
4671.576472027476
 21
7743.440911295768
 31
0.0
  0
LINE
  5
61CD
330
1A
100
AcDbEntity
  8
Visible (ISO)
100
AcDbLine
 10
4671.576472027476
 20
7743.440911295768
 30
0.0
 11
4671.576472027476
 21
7745.792148925305
 31
0.0
  0
LINE
  5
61CE
330
1A
100
AcDbEntity
  8
Visible (ISO)
100
AcDbLine
 10
4671.576472027476
 20
7745.792148925305
 30
0.0
 11
4671.576472027476
 21
7750.741736080922
 31
0.0
  0
LINE
  5
61CF
330
1A
100
AcDbEntity
  8
Visible (ISO)
100
AcDbLine
 10
4671.576472027476
 20
7750.741736080922
 30
0.0
 11
4671.576472027476
 21
7751.24173608092
 31
0.0
  0
LINE
  5
61D0
330
1A
100
AcDbEntity
  8
Visible (ISO)
100
AcDbLine
 10
4671.576472027473
 20
7752.74173608092
 30
0.0
 11
4671.576472027473
 21
7751.24173608092
 31
0.0
  0
LINE
  5
61D1
330
1A
100
AcDbEntity
  8
Visible (ISO)
100
AcDbLine
 10
4663.576472027473
 20
7751.24173608092
 30
0.0
 11
4671.576472027476
 21
7751.24173608092
 31
0.0
  0
LINE
  5
61D2
330
1A
100
AcDbEntity
  8
Hidden (ISO)
100
AcDbLine
 10
4663.576472027476
 20
7752.74173608092
 30
0.0
 11
4671.576472027473
 21
7752.74173608092
 31
0.0
  0
LINE
  5
61D3
330
1A
100
AcDbEntity
  8
Hidden (ISO)
100
AcDbLine
 10
4663.576472027476
 20
7731.341736080921
 30
0.0
 11
4671.576472027469
 21
7731.341736080921
 31
0.0
  0
LINE
  5
61D4
330
1A
100
AcDbEntity
  8
Hidden (ISO)
100
AcDbLine
 10
4663.576472027476
 20
7717.341736080921
 30
0.0
 11
4671.576472027469
 21
7717.341736080921
 31
0.0
  0
LINE
  5
61D5
330
1A
100
AcDbEntity
  8
Hidden (ISO)
100
AcDbLine
 10
4663.576472027476
 20
7701.341736080919
 30
0.0
 11
4671.576472027469
 21
7701.341736080919
 31
0.0
  0
LINE
  5
61D6
330
1A
100
AcDbEntity
  8
Hidden (ISO)
100
AcDbLine
 10
4663.576472027476
 20
7687.341736080921
 30
0.0
 11
4671.576472027469
 21
7687.341736080921
 31
0.0
  0
LINE
  5
61D7
330
1A
100
AcDbEntity
  8
Hidden (ISO)
100
AcDbLine
 10
4663.576472027476
 20
7671.34173608092
 30
0.0
 11
4671.576472027469
 21
7671.34173608092
 31
0.0
  0
LINE
  5
61D8
330
1A
100
AcDbEntity
  8
Hidden (ISO)
100
AcDbLine
 10
4663.576472027476
 20
7657.341736080922
 30
0.0
 11
4671.576472027469
 21
7657.341736080922
 31
0.0
  0
LINE
  5
61D9
330
1A
100
AcDbEntity
  8
Visible (ISO)
100
AcDbLine
 10
4614.191074101889
 20
7797.61431686663
 30
0.0
 11
4609.191074101889
 21
7797.614316866628
 31
0.0
  0
LINE
  5
61DA
330
1A
100
AcDbEntity
  8
Visible (ISO)
100
AcDbLine
 10
4579.191074101889
 20
7797.614316866628
 30
0.0
 11
4609.191074101889
 21
7797.614316866628
 31
0.0
  0
LINE
  5
61DB
330
1A
100
AcDbEntity
  8
Visible (ISO)
100
AcDbLine
 10
4579.191074101889
 20
7797.614316866628
 30
0.0
 11
4574.191074101888
 21
7797.61431686663
 31
0.0
  0
LINE
  5
61DC
330
1A
100
AcDbEntity
  8
Visible (ISO)
100
AcDbLine
 10
4609.191074101889
 20
7805.614316866628
 30
0.0
 11
4579.191074101889
 21
7805.614316866628
 31
0.0
  0
LINE
  5
61DD
330
1A
100
AcDbEntity
  8
Visible (ISO)
100
AcDbLine
 10
4574.191074101888
 20
7805.61431686663
 30
0.0
 11
4579.191074101889
 21
7805.614316866628
 31
0.0
  0
LINE
  5
61DE
330
1A
100
AcDbEntity
  8
Visible (ISO)
100
AcDbLine
 10
4574.191074101888
 20
7797.61431686663
 30
0.0
 11
4574.191074101888
 21
7805.61431686663
 31
0.0
  0
LINE
  5
61DF
330
1A
100
AcDbEntity
  8
Visible (ISO)
100
AcDbLine
 10
4614.191074101889
 20
7797.61431686663
 30
0.0
 11
4614.191074101889
 21
7805.61431686663
 31
0.0
  0
LINE
  5
61E0
330
1A
100
AcDbEntity
  8
Visible (ISO)
100
AcDbLine
 10
4609.191074101889
 20
7805.614316866628
 30
0.0
 11
4614.191074101889
 21
7805.61431686663
 31
0.0
  0
LINE
  5
61E1
330
1A
100
AcDbEntity
  8
Hidden (ISO)
100
AcDbLine
 10
4577.941074101889
 20
7797.614316866661
 30
0.0
 11
4577.941074101889
 21
7805.61431686663
 31
0.0
  0
LINE
  5
61E2
330
1A
100
AcDbEntity
  8
Hidden (ISO)
100
AcDbLine
 10
4610.441074101889
 20
7797.614316866661
 30
0.0
 11
4610.441074101889
 21
7805.614316866628
 31
0.0
  0
LINE
  5
61E3
330
1A
100
AcDbEntity
  8
Hidden (ISO)
100
AcDbLine
 10
4587.441074101889
 20
7797.614316866658
 30
0.0
 11
4587.441074101889
 21
7805.614316866628
 31
0.0
  0
LINE
  5
61E4
330
1A
100
AcDbEntity
  8
Hidden (ISO)
100
AcDbLine
 10
4585.191074101889
 20
7797.614316866661
 30
0.0
 11
4585.191074101889
 21
7805.614316866628
 31
0.0
  0
LINE
  5
61E5
330
1A
100
AcDbEntity
  8
Hidden (ISO)
100
AcDbLine
 10
4603.191074101888
 20
7797.614316866661
 30
0.0
 11
4603.191074101888
 21
7805.614316866628
 31
0.0
  0
LINE
  5
61E6
330
1A
100
AcDbEntity
  8
Hidden (ISO)
100
AcDbLine
 10
4600.941074101888
 20
7797.614316866658
 30
0.0
 11
4600.941074101888
 21
7805.614316866628
 31
0.0
  0
LINE
  5
61E7
330
1A
100
AcDbEntity
  8
Hidden (ISO)
100
AcDbLine
 10
4587.191074101889
 20
7797.614316866635
 30
0.0
 11
4587.191074101889
 21
7805.614316866628
 31
0.0
  0
LINE
  5
61E8
330
1A
100
AcDbEntity
  8
Hidden (ISO)
100
AcDbLine
 10
4601.191074101889
 20
7797.614316866635
 30
0.0
 11
4601.191074101889
 21
7805.614316866628
 31
0.0
  0
LINE
  5
61E9
330
1A
100
AcDbEntity
  8
Visible (ISO)
100
AcDbLine
 10
4606.054332553314
 20
7595.106761395642
 30
0.0
 11
4605.811511087728
 21
7595.106761395642
 31
0.0
  0
LINE
  5
61EA
330
1A
100
AcDbEntity
  8
Visible (ISO)
100
AcDbLine
 10
4605.811511087728
 20
7603.106761395643
 30
0.0
 11
4606.054332553314
 21
7603.106761395643
 31
0.0
  0
LINE
  5
61EB
330
1A
100
AcDbEntity
  8
Visible (ISO)
100
AcDbLine
 10
4610.183895567418
 20
7603.106761395642
 30
0.0
 11
4610.441074101831
 21
7603.106761395642
 31
0.0
  0
LINE
  5
61EC
330
1A
100
AcDbEntity
  8
Visible (ISO)
100
AcDbLine
 10
4577.941074101831
 20
7603.106761395642
 30
0.0
 11
4578.198252636239
 21
7603.106761395642
 31
0.0
  0
LINE
  5
61ED
330
1A
100
AcDbEntity
  8
Visible (ISO)
100
AcDbLine
 10
4582.327815650338
 20
7603.106761395643
 30
0.0
 11
4582.570637115927
 21
7603.106761395643
 31
0.0
  0
LINE
  5
61EE
330
1A
100
AcDbEntity
  8
Visible (ISO)
100
AcDbLine
 10
4582.570637115927
 20
7595.106761395642
 30
0.0
 11
4582.327815650338
 21
7595.106761395642
 31
0.0
  0
LINE
  5
61EF
330
1A
100
AcDbEntity
  8
Visible (ISO)
100
AcDbLine
 10
4578.198252636239
 20
7595.106761395642
 30
0.0
 11
4577.941074101831
 21
7595.106761395642
 31
0.0
  0
LINE
  5
61F0
330
1A
100
AcDbEntity
  8
Visible (ISO)
100
AcDbLine
 10
4577.941074101831
 20
7603.106761395642
 30
0.0
 11
4577.941074101831
 21
7595.106761395642
 31
0.0
  0
LINE
  5
61F1
330
1A
100
AcDbEntity
  8
Visible (ISO)
100
AcDbLine
 10
4610.441074101831
 20
7595.106761395642
 30
0.0
 11
4610.183895567418
 21
7595.106761395642
 31
0.0
  0
LINE
  5
61F2
330
1A
100
AcDbEntity
  8
Visible (ISO)
100
AcDbLine
 10
4610.441074101826
 20
7595.106761395642
 30
0.0
 11
4610.441074101831
 21
7603.106761395642
 31
0.0
  0
LINE
  5
61F3
330
1A
100
AcDbEntity
  8
Visible (ISO)
100
AcDbLine
 10
4605.811511087728
 20
7603.106761395643
 30
0.0
 11
4582.570637115927
 21
7603.106761395643
 31
0.0
  0
LINE
  5
61F4
330
1A
100
AcDbEntity
  8
Visible (ISO)
100
AcDbLine
 10
4582.570637115927
 20
7595.106761395642
 30
0.0
 11
4605.811511087728
 21
7595.106761395642
 31
0.0
  0
LINE
  5
61F5
330
1A
100
AcDbEntity
  8
Visible (ISO)
100
AcDbLine
 10
4610.183895567418
 20
7603.106761395642
 30
0.0
 11
4606.054332553314
 21
7603.106761395643
 31
0.0
  0
LINE
  5
61F6
330
1A
100
AcDbEntity
  8
Visible (ISO)
100
AcDbLine
 10
4612.296482291784
 20
7603.106761395635
 30
0.0
 11
4610.441074101831
 21
7603.106761395635
 31
0.0
  0
LINE
  5
61F7
330
1A
100
AcDbEntity
  8
Visible (ISO)
100
AcDbLine
 10
4612.296482291784
 20
7603.106761395635
 30
0.0
 11
4614.191074101831
 21
7603.106761395634
 31
0.0
  0
LINE
  5
61F8
330
1A
100
AcDbEntity
  8
Visible (ISO)
100
AcDbLine
 10
4574.191074101831
 20
7603.106761395634
 30
0.0
 11
4576.085665911874
 21
7603.106761395635
 31
0.0
  0
LINE
  5
61F9
330
1A
100
AcDbEntity
  8
Visible (ISO)
100
AcDbLine
 10
4577.941074101831
 20
7603.106761395635
 30
0.0
 11
4576.085665911874
 21
7603.106761395635
 31
0.0
  0
LINE
  5
61FA
330
1A
100
AcDbEntity
  8
Visible (ISO)
100
AcDbLine
 10
4582.327815650338
 20
7603.106761395643
 30
0.0
 11
4578.198252636239
 21
7603.106761395642
 31
0.0
  0
LINE
  5
61FB
330
1A
100
AcDbEntity
  8
Visible (ISO)
100
AcDbLine
 10
4578.198252636239
 20
7595.106761395642
 30
0.0
 11
4582.327815650338
 21
7595.106761395642
 31
0.0
  0
LINE
  5
61FC
330
1A
100
AcDbEntity
  8
Visible (ISO)
100
AcDbLine
 10
4574.191074101831
 20
7603.106761395634
 30
0.0
 11
4574.191074101831
 21
7595.106761395634
 31
0.0
  0
LINE
  5
61FD
330
1A
100
AcDbEntity
  8
Visible (ISO)
100
AcDbLine
 10
4576.085665911874
 20
7595.106761395635
 30
0.0
 11
4574.191074101831
 21
7595.106761395634
 31
0.0
  0
LINE
  5
61FE
330
1A
100
AcDbEntity
  8
Visible (ISO)
100
AcDbLine
 10
4576.085665911874
 20
7595.106761395635
 30
0.0
 11
4577.941074101831
 21
7595.106761395635
 31
0.0
  0
LINE
  5
61FF
330
1A
100
AcDbEntity
  8
Visible (ISO)
100
AcDbLine
 10
4606.054332553314
 20
7595.106761395642
 30
0.0
 11
4610.183895567418
 21
7595.106761395642
 31
0.0
  0
LINE
  5
6200
330
1A
100
AcDbEntity
  8
Visible (ISO)
100
AcDbLine
 10
4610.441074101831
 20
7595.106761395635
 30
0.0
 11
4612.296482291784
 21
7595.106761395635
 31
0.0
  0
LINE
  5
6201
330
1A
100
AcDbEntity
  8
Visible (ISO)
100
AcDbLine
 10
4614.191074101831
 20
7595.106761395634
 30
0.0
 11
4612.296482291784
 21
7595.106761395635
 31
0.0
  0
LINE
  5
6202
330
1A
100
AcDbEntity
  8
Visible (ISO)
100
AcDbLine
 10
4614.191074101831
 20
7603.106761395634
 30
0.0
 11
4614.191074101831
 21
7595.106761395634
 31
0.0
  0
LINE
  5
6203
330
1A
100
AcDbEntity
  8
Hidden (ISO)
100
AcDbLine
 10
4587.441074101831
 20
7603.106761395638
 30
0.0
 11
4587.441074101831
 21
7595.106761395642
 31
0.0
  0
LINE
  5
6204
330
1A
100
AcDbEntity
  8
Hidden (ISO)
100
AcDbLine
 10
4585.191074101831
 20
7603.106761395641
 30
0.0
 11
4585.191074101831
 21
7595.106761395642
 31
0.0
  0
LINE
  5
6205
330
1A
100
AcDbEntity
  8
Hidden (ISO)
100
AcDbLine
 10
4603.191074101831
 20
7603.106761395641
 30
0.0
 11
4603.191074101831
 21
7595.106761395642
 31
0.0
  0
LINE
  5
6206
330
1A
100
AcDbEntity
  8
Hidden (ISO)
100
AcDbLine
 10
4600.941074101831
 20
7603.106761395638
 30
0.0
 11
4600.941074101831
 21
7595.106761395642
 31
0.0
  0
LINE
  5
6207
330
1A
100
AcDbEntity
  8
Hidden (ISO)
100
AcDbLine
 10
4601.191074101831
 20
7603.106761395631
 30
0.0
 11
4601.191074101831
 21
7595.106761395642
 31
0.0
  0
LINE
  5
6208
330
1A
100
AcDbEntity
  8
Hidden (ISO)
100
AcDbLine
 10
4587.191074101831
 20
7603.106761395631
 30
0.0
 11
4587.191074101831
 21
7595.106761395642
 31
0.0
  0
CIRCLE
  5
6209
330
1A
100
AcDbEntity
  8
Visible (ISO)
100
AcDbCircle
 10
4566.854017196489
 20
6607.478263092462
 30
0.0
 40
7.0
  0
CIRCLE
  5
620A
330
1A
100
AcDbEntity
  8
Visible (ISO)
100
AcDbCircle
 10
4566.854017196489
 20
6577.478263092462
 30
0.0
 40
7.0
  0
CIRCLE
  5
620B
330
1A
100
AcDbEntity
  8
Visible (ISO)
100
AcDbCircle
 10
4566.854017196489
 20
6547.478263092462
 30
0.0
 40
7.0
  0
ARC
  5
620C
330
1A
100
AcDbEntity
  8
Visible (ISO)
100
AcDbCircle
 10
4551.854017196489
 20
6532.478263092461
 30
0.0
 40
4.999999999999999
100
AcDbArc
 50
180.0
 51
270.0
  0
LINE
  5
620D
330
1A
100
AcDbEntity
  8
Visible (ISO)
100
AcDbLine
 10
4546.85401719649
 20
6532.478263092461
 30
0.0
 11
4546.85401719649
 21
6662.060908351823
 31
0.0
  0
ARC
  5
620E
330
1A
100
AcDbEntity
  8
Visible (ISO)
100
AcDbCircle
 10
4551.853989439865
 20
6662.060908351823
 30
0.0
 40
4.999972243375848
100
AcDbArc
 50
128.3951645032005
 51
180.0
  0
LINE
  5
620F
330
1A
100
AcDbEntity
  8
Visible (ISO)
100
AcDbLine
 10
4548.748598489039
 20
6665.979615980245
 30
0.0
 11
4558.967194865907
 21
6674.07737159965
 31
0.0
  0
ARC
  5
6210
330
1A
100
AcDbEntity
  8
Visible (ISO)
100
AcDbCircle
 10
4557.103960295413
 20
6676.428596176704
 30
0.0
 40
2.999983346026337
100
AcDbArc
 50
308.3951645032005
 51
0.0
  0
LINE
  5
6211
330
1A
100
AcDbEntity
  8
Visible (ISO)
100
AcDbLine
 10
4560.103943641435
 20
6676.428596176704
 30
0.0
 11
4560.103943641435
 21
6681.378155855553
 31
0.0
  0
ARC
  5
6212
330
1A
100
AcDbEntity
  8
Visible (ISO)
100
AcDbCircle
 10
4558.103954744086
 20
6681.378155855553
 30
0.0
 40
1.999988897350599
100
AcDbArc
 50
0.0
 51
90.0
  0
LINE
  5
6213
330
1A
100
AcDbEntity
  8
Visible (ISO)
100
AcDbLine
 10
4558.103954744086
 20
6683.378144752905
 30
0.0
 11
4557.85395613192
 21
6683.378144752905
 31
0.0
  0
LINE
  5
6214
330
1A
100
AcDbEntity
  8
Visible (ISO)
100
AcDbLine
 10
4557.85395613192
 20
6683.378144752905
 30
0.0
 11
4552.495290227603
 21
6681.930091706049
 31
0.0
  0
ARC
  5
6215
330
1A
100
AcDbEntity
  8
Visible (ISO)
100
AcDbCircle
 10
4552.103988052038
 20
6683.378144752904
 30
0.0
 40
1.499991673012829
100
AcDbArc
 50
269.9999999997916
 51
285.1216653148272
  0
LINE
  5
6216
330
1A
100
AcDbEntity
  8
Visible (ISO)
100
AcDbLine
 10
4552.103988052034
 20
6681.878153079892
 30
0.0
 11
4552.057930373814
 21
6681.878153079892
 31
0.0
  0
ARC
  5
6217
330
1A
100
AcDbEntity
  8
Visible (ISO)
100
AcDbCircle
 10
4552.057930373814
 20
6682.878147528566
 30
0.0
 40
0.9999944486753518
100
AcDbArc
 50
182.7006293373592
 51
270.0
  0
LINE
  5
6218
330
1A
100
AcDbEntity
  8
Visible (ISO)
100
AcDbLine
 10
4551.05904656149
 20
6682.831030367608
 30
0.0
 11
4550.633236462645
 21
6691.858204463017
 31
0.0
  0
ARC
  5
6219
330
1A
100
AcDbEntity
  8
Visible (ISO)
100
AcDbCircle
 10
4551.632120274969
 20
6691.905321623976
 30
0.0
 40
0.9999944486758426
100
AcDbArc
 50
119.0546040991556
 51
182.7006293373592
  0
LINE
  5
621A
330
1A
100
AcDbEntity
  8
Visible (ISO)
100
AcDbLine
 10
4551.146480039752
 20
6692.779474047367
 30
0.0
 11
4554.990713575302
 21
6694.915159344894
 31
0.0
  0
ARC
  5
621B
330
1A
100
AcDbEntity
  8
Visible (ISO)
100
AcDbCircle
 10
4555.233533692912
 20
6694.478083133201
 30
0.0
 40
0.4999972243370387
100
AcDbArc
 50
89.99999999979158
 51
119.0546040991556
  0
LINE
  5
621C
330
1A
100
AcDbEntity
  8
Visible (ISO)
100
AcDbLine
 10
4555.233533692912
 20
6694.978080357538
 30
0.0
 11
4578.474500700066
 21
6694.978080357538
 31
0.0
  0
ARC
  5
621D
330
1A
100
AcDbEntity
  8
Visible (ISO)
100
AcDbCircle
 10
4578.474500700066
 20
6694.4780831332
 30
0.0
 40
0.4999972243370367
100
AcDbArc
 50
60.94539590084441
 51
90.0
  0
LINE
  5
621E
330
1A
100
AcDbEntity
  8
Visible (ISO)
100
AcDbLine
 10
4578.717320817677
 20
6694.915159344894
 30
0.0
 11
4582.561554353229
 21
6692.779474047367
 31
0.0
  0
ARC
  5
621F
330
1A
100
AcDbEntity
  8
Visible (ISO)
100
AcDbCircle
 10
4582.075914118006
 20
6691.905321623976
 30
0.0
 40
0.999994448675886
100
AcDbArc
 50
357.2993706626409
 51
60.94539590084441
  0
LINE
  5
6220
330
1A
100
AcDbEntity
  8
Visible (ISO)
100
AcDbLine
 10
4583.074797930335
 20
6691.858204463017
 30
0.0
 11
4582.648987831491
 21
6682.831030367608
 31
0.0
  0
ARC
  5
6221
330
1A
100
AcDbEntity
  8
Visible (ISO)
100
AcDbCircle
 10
4581.650104019167
 20
6682.878147528566
 30
0.0
 40
0.9999944486753124
100
AcDbArc
 50
270.0
 51
357.2993706626409
  0
LINE
  5
6222
330
1A
100
AcDbEntity
  8
Visible (ISO)
100
AcDbLine
 10
4581.650104019167
 20
6681.87815307989
 30
0.0
 11
4581.604046340946
 21
6681.87815307989
 31
0.0
  0
ARC
  5
6223
330
1A
100
AcDbEntity
  8
Visible (ISO)
100
AcDbCircle
 10
4581.604046340943
 20
6683.378144752904
 30
0.0
 40
1.499991673012868
100
AcDbArc
 50
254.8783346851727
 51
270.0
  0
LINE
  5
6224
330
1A
100
AcDbEntity
  8
Visible (ISO)
100
AcDbLine
 10
4581.212744165378
 20
6681.930091706049
 30
0.0
 11
4575.85407826106
 21
6683.378144752905
 31
0.0
  0
LINE
  5
6225
330
1A
100
AcDbEntity
  8
Visible (ISO)
100
AcDbLine
 10
4575.85407826106
 20
6683.378144752905
 30
0.0
 11
4575.604079648893
 21
6683.378144752905
 31
0.0
  0
ARC
  5
6226
330
1A
100
AcDbEntity
  8
Visible (ISO)
100
AcDbCircle
 10
4575.604079648893
 20
6681.378155855553
 30
0.0
 40
1.999988897349389
100
AcDbArc
 50
90.0
 51
180.0
  0
LINE
  5
6227
330
1A
100
AcDbEntity
  8
Visible (ISO)
100
AcDbLine
 10
4573.60409075154
 20
6681.378155855553
 30
0.0
 11
4573.60409075154
 21
6676.428596176704
 31
0.0
  0
ARC
  5
6228
330
1A
100
AcDbEntity
  8
Visible (ISO)
100
AcDbCircle
 10
4576.60407409757
 20
6676.428596176704
 30
0.0
 40
2.999983346026285
100
AcDbArc
 50
180.0
 51
231.6048354967994
  0
LINE
  5
6229
330
1A
100
AcDbEntity
  8
Visible (ISO)
100
AcDbLine
 10
4574.740839527076
 20
6674.07737159965
 30
0.0
 11
4584.959435903942
 21
6665.979615980245
 31
0.0
  0
ARC
  5
622A
330
1A
100
AcDbEntity
  8
Visible (ISO)
100
AcDbCircle
 10
4581.854044953115
 20
6662.060908351823
 30
0.0
 40
4.999972243375808
100
AcDbArc
 50
0.0
 51
51.60483549679944
  0
LINE
  5
622B
330
1A
100
AcDbEntity
  8
Visible (ISO)
100
AcDbLine
 10
4586.854017196491
 20
6662.060908351823
 30
0.0
 11
4586.854017196491
 21
6532.478263092461
 31
0.0
  0
ARC
  5
622C
330
1A
100
AcDbEntity
  8
Visible (ISO)
100
AcDbCircle
 10
4581.85401719649
 20
6532.478263092461
 30
0.0
 40
5.0
100
AcDbArc
 50
270.0
 51
0.0
  0
LINE
  5
622D
330
1A
100
AcDbEntity
  8
Visible (ISO)
100
AcDbLine
 10
4581.85401719649
 20
6527.478263092461
 30
0.0
 11
4551.854017196489
 21
6527.478263092461
 31
0.0
  0
LINE
  5
622E
330
1A
100
AcDbEntity
  8
Visible (ISO)
100
AcDbLine
 10
4627.337736502314
 20
6532.478263092461
 30
0.0
 11
4627.337736502314
 21
6527.478263092461
 31
0.0
  0
LINE
  5
622F
330
1A
100
AcDbEntity
  8
Visible (ISO)
100
AcDbLine
 10
4619.337736502313
 20
6532.478263092461
 30
0.0
 11
4619.337736502313
 21
6527.478263092461
 31
0.0
  0
LINE
  5
6230
330
1A
100
AcDbEntity
  8
Visible (ISO)
100
AcDbLine
 10
4619.337736502313
 20
6527.478263092461
 30
0.0
 11
4627.337736502314
 21
6527.478263092461
 31
0.0
  0
LINE
  5
6231
330
1A
100
AcDbEntity
  8
Visible (ISO)
100
AcDbLine
 10
4627.337736502314
 20
6532.478263092461
 30
0.0
 11
4627.337736502314
 21
6662.060908351823
 31
0.0
  0
LINE
  5
6232
330
1A
100
AcDbEntity
  8
Visible (ISO)
100
AcDbLine
 10
4619.337736502313
 20
6532.478263092461
 30
0.0
 11
4619.337736502313
 21
6662.060908351823
 31
0.0
  0
LINE
  5
6233
330
1A
100
AcDbEntity
  8
Visible (ISO)
100
AcDbLine
 10
4627.337736502314
 20
6665.979615980245
 30
0.0
 11
4627.337736502314
 21
6662.060908351823
 31
0.0
  0
LINE
  5
6234
330
1A
100
AcDbEntity
  8
Visible (ISO)
100
AcDbLine
 10
4619.337736502313
 20
6665.979615980245
 30
0.0
 11
4619.337736502313
 21
6662.060908351823
 31
0.0
  0
LINE
  5
6235
330
1A
100
AcDbEntity
  8
Visible (ISO)
100
AcDbLine
 10
4627.337736502314
 20
6665.979615980245
 30
0.0
 11
4627.337736502317
 21
6674.07737159965
 31
0.0
  0
LINE
  5
6236
330
1A
100
AcDbEntity
  8
Visible (ISO)
100
AcDbLine
 10
4619.337736502313
 20
6665.979615980245
 30
0.0
 11
4619.337736502317
 21
6674.07737159965
 31
0.0
  0
LINE
  5
6237
330
1A
100
AcDbEntity
  8
Visible (ISO)
100
AcDbLine
 10
4627.337736502317
 20
6674.07737159965
 30
0.0
 11
4627.337736502317
 21
6676.428596176704
 31
0.0
  0
LINE
  5
6238
330
1A
100
AcDbEntity
  8
Visible (ISO)
100
AcDbLine
 10
4619.337736502317
 20
6674.07737159965
 30
0.0
 11
4619.337736502317
 21
6676.428596176704
 31
0.0
  0
LINE
  5
6239
330
1A
100
AcDbEntity
  8
Visible (ISO)
100
AcDbLine
 10
4627.337736502317
 20
6676.428596176704
 30
0.0
 11
4627.337736502317
 21
6681.378155855553
 31
0.0
  0
LINE
  5
623A
330
1A
100
AcDbEntity
  8
Visible (ISO)
100
AcDbLine
 10
4619.337736502317
 20
6676.428596176704
 30
0.0
 11
4619.337736502317
 21
6681.378155855553
 31
0.0
  0
LINE
  5
623B
330
1A
100
AcDbEntity
  8
Visible (ISO)
100
AcDbLine
 10
4627.337736502317
 20
6681.378155855553
 30
0.0
 11
4627.337736502317
 21
6681.878153079892
 31
0.0
  0
LINE
  5
623C
330
1A
100
AcDbEntity
  8
Visible (ISO)
100
AcDbLine
 10
4619.337736502317
 20
6681.378155855553
 30
0.0
 11
4619.337736502317
 21
6681.878153079892
 31
0.0
  0
LINE
  5
623D
330
1A
100
AcDbEntity
  8
Visible (ISO)
100
AcDbLine
 10
4619.337736502313
 20
6681.878153079892
 30
0.0
 11
4627.337736502314
 21
6681.878153079892
 31
0.0
  0
LINE
  5
623E
330
1A
100
AcDbEntity
  8
Visible (ISO)
100
AcDbLine
 10
4627.337736502314
 20
6682.831030367608
 30
0.0
 11
4627.337736502314
 21
6681.878153079892
 31
0.0
  0
LINE
  5
623F
330
1A
100
AcDbEntity
  8
Visible (ISO)
100
AcDbLine
 10
4619.337736502313
 20
6682.831030367608
 30
0.0
 11
4619.337736502313
 21
6681.878153079892
 31
0.0
  0
LINE
  5
6240
330
1A
100
AcDbEntity
  8
Visible (ISO)
100
AcDbLine
 10
4627.337736502314
 20
6682.831030367608
 30
0.0
 11
4627.337736502314
 21
6691.858204463017
 31
0.0
  0
LINE
  5
6241
330
1A
100
AcDbEntity
  8
Visible (ISO)
100
AcDbLine
 10
4619.337736502313
 20
6682.831030367608
 30
0.0
 11
4619.337736502313
 21
6691.858204463017
 31
0.0
  0
LINE
  5
6242
330
1A
100
AcDbEntity
  8
Visible (ISO)
100
AcDbLine
 10
4627.337736502314
 20
6692.779474047367
 30
0.0
 11
4627.337736502314
 21
6691.858204463017
 31
0.0
  0
LINE
  5
6243
330
1A
100
AcDbEntity
  8
Visible (ISO)
100
AcDbLine
 10
4619.337736502313
 20
6692.779474047367
 30
0.0
 11
4619.337736502313
 21
6691.858204463017
 31
0.0
  0
LINE
  5
6244
330
1A
100
AcDbEntity
  8
Visible (ISO)
100
AcDbLine
 10
4627.337736502314
 20
6692.779474047367
 30
0.0
 11
4627.337736502317
 21
6694.915159344894
 31
0.0
  0
LINE
  5
6245
330
1A
100
AcDbEntity
  8
Visible (ISO)
100
AcDbLine
 10
4619.337736502313
 20
6692.779474047367
 30
0.0
 11
4619.337736502317
 21
6694.915159344894
 31
0.0
  0
LINE
  5
6246
330
1A
100
AcDbEntity
  8
Visible (ISO)
100
AcDbLine
 10
4627.337736502317
 20
6694.978080357538
 30
0.0
 11
4627.337736502317
 21
6694.915159344894
 31
0.0
  0
LINE
  5
6247
330
1A
100
AcDbEntity
  8
Visible (ISO)
100
AcDbLine
 10
4619.337736502317
 20
6694.978080357538
 30
0.0
 11
4627.337736502317
 21
6694.978080357538
 31
0.0
  0
LINE
  5
6248
330
1A
100
AcDbEntity
  8
Visible (ISO)
100
AcDbLine
 10
4619.337736502317
 20
6694.978080357538
 30
0.0
 11
4619.337736502317
 21
6694.915159344894
 31
0.0
  0
LINE
  5
6249
330
1A
100
AcDbEntity
  8
Hidden (ISO)
100
AcDbLine
 10
4619.337736502317
 20
6683.378144752905
 30
0.0
 11
4627.337736502317
 21
6683.378144752905
 31
0.0
  0
LINE
  5
624A
330
1A
100
AcDbEntity
  8
Hidden (ISO)
100
AcDbLine
 10
4619.337736502322
 20
6614.478263092462
 30
0.0
 11
4627.337736502322
 21
6614.478263092462
 31
0.0
  0
LINE
  5
624B
330
1A
100
AcDbEntity
  8
Hidden (ISO)
100
AcDbLine
 10
4619.337736502322
 20
6600.478263092462
 30
0.0
 11
4627.337736502322
 21
6600.478263092462
 31
0.0
  0
LINE
  5
624C
330
1A
100
AcDbEntity
  8
Hidden (ISO)
100
AcDbLine
 10
4619.337736502322
 20
6584.478263092464
 30
0.0
 11
4627.337736502322
 21
6584.478263092464
 31
0.0
  0
LINE
  5
624D
330
1A
100
AcDbEntity
  8
Hidden (ISO)
100
AcDbLine
 10
4619.337736502322
 20
6570.478263092462
 30
0.0
 11
4627.337736502322
 21
6570.478263092462
 31
0.0
  0
LINE
  5
624E
330
1A
100
AcDbEntity
  8
Hidden (ISO)
100
AcDbLine
 10
4619.337736502322
 20
6554.478263092462
 30
0.0
 11
4627.337736502322
 21
6554.478263092462
 31
0.0
  0
LINE
  5
624F
330
1A
100
AcDbEntity
  8
Hidden (ISO)
100
AcDbLine
 10
4619.337736502322
 20
6540.478263092461
 30
0.0
 11
4627.337736502322
 21
6540.478263092461
 31
0.0
  0
LINE
  5
6250
330
1A
100
AcDbEntity
  8
Visible (ISO)
100
AcDbLine
 10
4546.85401719649
 20
6748.953895557128
 30
0.0
 11
4551.854017196489
 21
6748.953895557126
 31
0.0
  0
LINE
  5
6251
330
1A
100
AcDbEntity
  8
Visible (ISO)
100
AcDbLine
 10
4546.85401719649
 20
6740.953895557128
 30
0.0
 11
4546.85401719649
 21
6748.953895557128
 31
0.0
  0
LINE
  5
6252
330
1A
100
AcDbEntity
  8
Visible (ISO)
100
AcDbLine
 10
4546.85401719649
 20
6740.953895557128
 30
0.0
 11
4551.854017196489
 21
6740.953895557126
 31
0.0
  0
LINE
  5
6253
330
1A
100
AcDbEntity
  8
Visible (ISO)
100
AcDbLine
 10
4586.854017196491
 20
6740.953895557128
 30
0.0
 11
4586.854017196491
 21
6748.953895557128
 31
0.0
  0
LINE
  5
6254
330
1A
100
AcDbEntity
  8
Visible (ISO)
100
AcDbLine
 10
4581.85401719649
 20
6748.953895557126
 30
0.0
 11
4586.854017196491
 21
6748.953895557128
 31
0.0
  0
LINE
  5
6255
330
1A
100
AcDbEntity
  8
Visible (ISO)
100
AcDbLine
 10
4581.85401719649
 20
6740.953895557126
 30
0.0
 11
4586.854017196491
 21
6740.953895557128
 31
0.0
  0
LINE
  5
6256
330
1A
100
AcDbEntity
  8
Visible (ISO)
100
AcDbLine
 10
4581.85401719649
 20
6748.953895557126
 30
0.0
 11
4551.854017196489
 21
6748.953895557126
 31
0.0
  0
LINE
  5
6257
330
1A
100
AcDbEntity
  8
Visible (ISO)
100
AcDbLine
 10
4581.85401719649
 20
6740.953895557126
 30
0.0
 11
4551.854017196489
 21
6740.953895557126
 31
0.0
  0
LINE
  5
6258
330
1A
100
AcDbEntity
  8
Hidden (ISO)
100
AcDbLine
 10
4560.103943641435
 20
6740.95389555717
 30
0.0
 11
4560.103943641435
 21
6748.95389555717
 31
0.0
  0
LINE
  5
6259
330
1A
100
AcDbEntity
  8
Hidden (ISO)
100
AcDbLine
 10
4557.85395613192
 20
6740.953895557172
 30
0.0
 11
4557.85395613192
 21
6748.95389555717
 31
0.0
  0
LINE
  5
625A
330
1A
100
AcDbEntity
  8
Hidden (ISO)
100
AcDbLine
 10
4575.85407826106
 20
6740.953895557172
 30
0.0
 11
4575.85407826106
 21
6748.95389555717
 31
0.0
  0
LINE
  5
625B
330
1A
100
AcDbEntity
  8
Hidden (ISO)
100
AcDbLine
 10
4573.60409075154
 20
6740.95389555717
 30
0.0
 11
4573.60409075154
 21
6748.95389555717
 31
0.0
  0
LINE
  5
625C
330
1A
100
AcDbEntity
  8
Hidden (ISO)
100
AcDbLine
 10
4550.632125826296
 20
6740.953895557175
 30
0.0
 11
4550.632125826296
 21
6748.953895557176
 31
0.0
  0
LINE
  5
625D
330
1A
100
AcDbEntity
  8
Hidden (ISO)
100
AcDbLine
 10
4583.075908566678
 20
6740.953895557175
 30
0.0
 11
4583.075908566678
 21
6748.953895557176
 31
0.0
  0
LINE
  5
625E
330
1A
100
AcDbEntity
  8
Hidden (ISO)
100
AcDbLine
 10
4559.85401719649
 20
6740.953895557132
 30
0.0
 11
4559.85401719649
 21
6748.953895557132
 31
0.0
  0
LINE
  5
625F
330
1A
100
AcDbEntity
  8
Hidden (ISO)
100
AcDbLine
 10
4573.854017196491
 20
6740.953895557132
 30
0.0
 11
4573.854017196491
 21
6748.953895557132
 31
0.0
  0
LINE
  5
6260
330
1A
100
AcDbEntity
  8
Visible (ISO)
100
AcDbLine
 10
4546.854017196451
 20
6485.470879912627
 30
0.0
 11
4546.854017196451
 21
6477.470879912627
 31
0.0
  0
LINE
  5
6261
330
1A
100
AcDbEntity
  8
Visible (ISO)
100
AcDbLine
 10
4548.748598489003
 20
6477.470879912629
 30
0.0
 11
4546.854017196451
 21
6477.470879912627
 31
0.0
  0
LINE
  5
6262
330
1A
100
AcDbEntity
  8
Visible (ISO)
100
AcDbLine
 10
4548.748598489003
 20
6485.47087991263
 30
0.0
 11
4546.854017196451
 21
6485.470879912627
 31
0.0
  0
LINE
  5
6263
330
1A
100
AcDbEntity
  8
Visible (ISO)
100
AcDbLine
 10
4548.748598489003
 20
6477.470879912629
 30
0.0
 11
4550.632125826256
 21
6477.470879912629
 31
0.0
  0
LINE
  5
6264
330
1A
100
AcDbEntity
  8
Visible (ISO)
100
AcDbLine
 10
4548.748598489003
 20
6485.47087991263
 30
0.0
 11
4550.632125826256
 21
6485.47087991263
 31
0.0
  0
LINE
  5
6265
330
1A
100
AcDbEntity
  8
Visible (ISO)
100
AcDbLine
 10
4551.146480039717
 20
6477.470879912637
 30
0.0
 11
4550.632125826256
 21
6477.470879912637
 31
0.0
  0
LINE
  5
6266
330
1A
100
AcDbEntity
  8
Visible (ISO)
100
AcDbLine
 10
4551.146480039717
 20
6485.470879912637
 30
0.0
 11
4550.632125826256
 21
6485.470879912637
 31
0.0
  0
LINE
  5
6267
330
1A
100
AcDbEntity
  8
Visible (ISO)
100
AcDbLine
 10
4551.146480039717
 20
6477.470879912637
 30
0.0
 11
4554.990713575267
 21
6477.470879912637
 31
0.0
  0
LINE
  5
6268
330
1A
100
AcDbEntity
  8
Visible (ISO)
100
AcDbLine
 10
4551.146480039717
 20
6485.470879912637
 30
0.0
 11
4554.990713575267
 21
6485.470879912637
 31
0.0
  0
LINE
  5
6269
330
1A
100
AcDbEntity
  8
Visible (ISO)
100
AcDbLine
 10
4555.233533692875
 20
6477.470879912637
 30
0.0
 11
4554.990713575267
 21
6477.470879912637
 31
0.0
  0
LINE
  5
626A
330
1A
100
AcDbEntity
  8
Visible (ISO)
100
AcDbLine
 10
4555.233533692875
 20
6485.470879912637
 30
0.0
 11
4554.990713575267
 21
6485.470879912637
 31
0.0
  0
LINE
  5
626B
330
1A
100
AcDbEntity
  8
Visible (ISO)
100
AcDbLine
 10
4555.233533692875
 20
6477.470879912637
 30
0.0
 11
4578.474500700024
 21
6477.470879912637
 31
0.0
  0
LINE
  5
626C
330
1A
100
AcDbEntity
  8
Visible (ISO)
100
AcDbLine
 10
4555.233533692875
 20
6485.470879912637
 30
0.0
 11
4578.474500700024
 21
6485.470879912637
 31
0.0
  0
LINE
  5
626D
330
1A
100
AcDbEntity
  8
Visible (ISO)
100
AcDbLine
 10
4578.717320817633
 20
6477.470879912637
 30
0.0
 11
4578.474500700024
 21
6477.470879912637
 31
0.0
  0
LINE
  5
626E
330
1A
100
AcDbEntity
  8
Visible (ISO)
100
AcDbLine
 10
4578.717320817633
 20
6485.470879912637
 30
0.0
 11
4578.474500700024
 21
6485.470879912637
 31
0.0
  0
LINE
  5
626F
330
1A
100
AcDbEntity
  8
Visible (ISO)
100
AcDbLine
 10
4578.717320817633
 20
6477.470879912637
 30
0.0
 11
4582.561554353187
 21
6477.470879912637
 31
0.0
  0
LINE
  5
6270
330
1A
100
AcDbEntity
  8
Visible (ISO)
100
AcDbLine
 10
4578.717320817633
 20
6485.470879912637
 30
0.0
 11
4582.561554353187
 21
6485.470879912637
 31
0.0
  0
LINE
  5
6271
330
1A
100
AcDbEntity
  8
Visible (ISO)
100
AcDbLine
 10
4583.075908566645
 20
6477.470879912637
 30
0.0
 11
4582.561554353187
 21
6477.470879912637
 31
0.0
  0
LINE
  5
6272
330
1A
100
AcDbEntity
  8
Visible (ISO)
100
AcDbLine
 10
4583.075908566645
 20
6485.470879912637
 30
0.0
 11
4582.561554353187
 21
6485.470879912637
 31
0.0
  0
LINE
  5
6273
330
1A
100
AcDbEntity
  8
Visible (ISO)
100
AcDbLine
 10
4583.075908566645
 20
6477.470879912629
 30
0.0
 11
4584.959435903907
 21
6477.470879912629
 31
0.0
  0
LINE
  5
6274
330
1A
100
AcDbEntity
  8
Visible (ISO)
100
AcDbLine
 10
4583.075908566645
 20
6485.47087991263
 30
0.0
 11
4584.959435903907
 21
6485.47087991263
 31
0.0
  0
LINE
  5
6275
330
1A
100
AcDbEntity
  8
Visible (ISO)
100
AcDbLine
 10
4586.854017196453
 20
6477.470879912627
 30
0.0
 11
4584.959435903907
 21
6477.470879912629
 31
0.0
  0
LINE
  5
6276
330
1A
100
AcDbEntity
  8
Visible (ISO)
100
AcDbLine
 10
4586.85401719645
 20
6485.470879912627
 30
0.0
 11
4586.85401719645
 21
6477.470879912627
 31
0.0
  0
LINE
  5
6277
330
1A
100
AcDbEntity
  8
Visible (ISO)
100
AcDbLine
 10
4586.854017196453
 20
6485.470879912627
 30
0.0
 11
4584.959435903907
 21
6485.47087991263
 31
0.0
  0
LINE
  5
6278
330
1A
100
AcDbEntity
  8
Visible (ISO)
100
AcDbLine
 10
4550.632125826256
 20
6485.470879912637
 30
0.0
 11
4550.632125826256
 21
6477.470879912637
 31
0.0
  0
LINE
  5
6279
330
1A
100
AcDbEntity
  8
Visible (ISO)
100
AcDbLine
 10
4583.075908566645
 20
6485.470879912637
 30
0.0
 11
4583.075908566645
 21
6477.470879912637
 31
0.0
  0
LINE
  5
627A
330
1A
100
AcDbEntity
  8
Hidden (ISO)
100
AcDbLine
 10
4560.103943641401
 20
6485.470879912631
 30
0.0
 11
4560.103943641401
 21
6477.470879912633
 31
0.0
  0
LINE
  5
627B
330
1A
100
AcDbEntity
  8
Hidden (ISO)
100
AcDbLine
 10
4557.853956131878
 20
6485.470879912634
 30
0.0
 11
4557.853956131878
 21
6477.470879912634
 31
0.0
  0
LINE
  5
627C
330
1A
100
AcDbEntity
  8
Hidden (ISO)
100
AcDbLine
 10
4575.854078261023
 20
6485.470879912634
 30
0.0
 11
4575.854078261023
 21
6477.470879912634
 31
0.0
  0
LINE
  5
627D
330
1A
100
AcDbEntity
  8
Hidden (ISO)
100
AcDbLine
 10
4573.604090751507
 20
6485.470879912631
 30
0.0
 11
4573.604090751507
 21
6477.470879912633
 31
0.0
  0
LINE
  5
627E
330
1A
100
AcDbEntity
  8
Hidden (ISO)
100
AcDbLine
 10
4573.854017196451
 20
6485.470879912611
 30
0.0
 11
4573.854017196451
 21
6477.470879912612
 31
0.0
  0
LINE
  5
627F
330
1A
100
AcDbEntity
  8
Hidden (ISO)
100
AcDbLine
 10
4559.854017196451
 20
6485.470879912611
 30
0.0
 11
4559.854017196451
 21
6477.470879912612
 31
0.0
  0
CIRCLE
  5
6280
330
1A
100
AcDbEntity
  8
Visible (ISO)
100
AcDbCircle
 10
4584.008956590374
 20
5488.16171766547
 30
0.0
 40
7.0
  0
CIRCLE
  5
6281
330
1A
100
AcDbEntity
  8
Visible (ISO)
100
AcDbCircle
 10
4584.008956590367
 20
5518.161717665471
 30
0.0
 40
7.0
  0
CIRCLE
  5
6282
330
1A
100
AcDbEntity
  8
Visible (ISO)
100
AcDbCircle
 10
4584.008956590367
 20
5458.161717665471
 30
0.0
 40
7.0
  0
LINE
  5
6283
330
1A
100
AcDbEntity
  8
Visible (ISO)
100
AcDbLine
 10
4599.008956590374
 20
5438.161717665471
 30
0.0
 11
4569.008956590367
 21
5438.161717665471
 31
0.0
  0
ARC
  5
6284
330
1A
100
AcDbEntity
  8
Visible (ISO)
100
AcDbCircle
 10
4569.008956590363
 20
5443.161717665471
 30
0.0
 40
5.0
100
AcDbArc
 50
180.0
 51
270.0
  0
LINE
  5
6285
330
1A
100
AcDbEntity
  8
Visible (ISO)
100
AcDbLine
 10
4564.008956590363
 20
5443.161717665471
 30
0.0
 11
4564.00895659037
 21
5614.744362924832
 31
0.0
  0
LINE
  5
6286
330
1A
100
AcDbEntity
  8
Visible (ISO)
100
AcDbLine
 10
4604.00895659037
 20
5614.744362924832
 30
0.0
 11
4604.008956590375
 21
5443.161717665471
 31
0.0
  0
ARC
  5
6287
330
1A
100
AcDbEntity
  8
Visible (ISO)
100
AcDbCircle
 10
4599.008956590374
 20
5443.161717665471
 30
0.0
 40
5.000000000000004
100
AcDbArc
 50
270.0
 51
0.0
  0
LINE
  5
6288
330
1A
100
AcDbEntity
  8
Visible (ISO)
100
AcDbLine
 10
4654.728924375578
 20
5647.661717665473
 30
0.0
 11
4646.728924375579
 21
5647.661717665473
 31
0.0
  0
LINE
  5
6289
330
1A
100
AcDbEntity
  8
Visible (ISO)
100
AcDbLine
 10
4646.728924375575
 20
5644.867515990972
 30
0.0
 11
4646.728924375575
 21
5645.304594629032
 31
0.0
  0
LINE
  5
628A
330
1A
100
AcDbEntity
  8
Visible (ISO)
100
AcDbLine
 10
4646.728924375579
 20
5647.598796303533
 30
0.0
 11
4646.728924375579
 21
5647.661717665473
 31
0.0
  0
LINE
  5
628B
330
1A
100
AcDbEntity
  8
Visible (ISO)
100
AcDbLine
 10
4654.728924375578
 20
5647.661717665473
 30
0.0
 11
4654.728924375578
 21
5647.598796303533
 31
0.0
  0
LINE
  5
628C
330
1A
100
AcDbEntity
  8
Visible (ISO)
100
AcDbLine
 10
4654.728924375574
 20
5645.304594629032
 30
0.0
 11
4654.728924375574
 21
5644.867515990972
 31
0.0
  0
LINE
  5
628D
330
1A
100
AcDbEntity
  8
Visible (ISO)
100
AcDbLine
 10
4646.728924375579
 20
5438.161717665471
 30
0.0
 11
4646.728924375575
 21
5443.161717665471
 31
0.0
  0
LINE
  5
628E
330
1A
100
AcDbEntity
  8
Visible (ISO)
100
AcDbLine
 10
4646.728924375575
 20
5614.744362924832
 30
0.0
 11
4646.728924375575
 21
5443.161717665471
 31
0.0
  0
LINE
  5
628F
330
1A
100
AcDbEntity
  8
Visible (ISO)
100
AcDbLine
 10
4646.728924375575
 20
5614.744362924832
 30
0.0
 11
4646.728924375575
 21
5618.663092307393
 31
0.0
  0
LINE
  5
6290
330
1A
100
AcDbEntity
  8
Visible (ISO)
100
AcDbLine
 10
4646.728924375582
 20
5626.760892880318
 30
0.0
 11
4646.728924375575
 21
5618.663092307393
 31
0.0
  0
LINE
  5
6291
330
1A
100
AcDbEntity
  8
Visible (ISO)
100
AcDbLine
 10
4646.728924375582
 20
5629.112130509856
 30
0.0
 11
4646.728924375582
 21
5626.760892880318
 31
0.0
  0
LINE
  5
6292
330
1A
100
AcDbEntity
  8
Visible (ISO)
100
AcDbLine
 10
4646.728924375582
 20
5634.061717665471
 30
0.0
 11
4646.728924375582
 21
5629.112130509856
 31
0.0
  0
LINE
  5
6293
330
1A
100
AcDbEntity
  8
Visible (ISO)
100
AcDbLine
 10
4646.728924375582
 20
5634.561717665471
 30
0.0
 11
4646.728924375582
 21
5634.061717665471
 31
0.0
  0
LINE
  5
6294
330
1A
100
AcDbEntity
  8
Visible (ISO)
100
AcDbLine
 10
4646.728924375579
 20
5634.561717665471
 30
0.0
 11
4646.728924375575
 21
5636.061717665471
 31
0.0
  0
LINE
  5
6295
330
1A
100
AcDbEntity
  8
Visible (ISO)
100
AcDbLine
 10
4646.728924375575
 20
5644.867515990972
 30
0.0
 11
4646.728924375575
 21
5636.061717665471
 31
0.0
  0
LINE
  5
6296
330
1A
100
AcDbEntity
  8
Visible (ISO)
100
AcDbLine
 10
4646.728924375579
 20
5647.598796303533
 30
0.0
 11
4646.728924375575
 21
5645.304594629032
 31
0.0
  0
LINE
  5
6297
330
1A
100
AcDbEntity
  8
Visible (ISO)
100
AcDbLine
 10
4654.728924375574
 20
5645.304594629032
 30
0.0
 11
4654.728924375578
 21
5647.598796303533
 31
0.0
  0
LINE
  5
6298
330
1A
100
AcDbEntity
  8
Visible (ISO)
100
AcDbLine
 10
4654.728924375574
 20
5636.061717665471
 30
0.0
 11
4654.728924375574
 21
5644.867515990972
 31
0.0
  0
LINE
  5
6299
330
1A
100
AcDbEntity
  8
Visible (ISO)
100
AcDbLine
 10
4646.728924375579
 20
5438.161717665471
 30
0.0
 11
4654.728924375578
 21
5438.161717665471
 31
0.0
  0
LINE
  5
629A
330
1A
100
AcDbEntity
  8
Visible (ISO)
100
AcDbLine
 10
4654.728924375574
 20
5443.161717665471
 30
0.0
 11
4654.728924375578
 21
5438.161717665471
 31
0.0
  0
LINE
  5
629B
330
1A
100
AcDbEntity
  8
Visible (ISO)
100
AcDbLine
 10
4654.728924375574
 20
5443.161717665471
 30
0.0
 11
4654.728924375574
 21
5614.744362924832
 31
0.0
  0
LINE
  5
629C
330
1A
100
AcDbEntity
  8
Visible (ISO)
100
AcDbLine
 10
4654.728924375574
 20
5618.663092307393
 30
0.0
 11
4654.728924375574
 21
5614.744362924832
 31
0.0
  0
LINE
  5
629D
330
1A
100
AcDbEntity
  8
Visible (ISO)
100
AcDbLine
 10
4654.728924375574
 20
5618.663092307393
 30
0.0
 11
4654.728924375581
 21
5626.760892880318
 31
0.0
  0
LINE
  5
629E
330
1A
100
AcDbEntity
  8
Visible (ISO)
100
AcDbLine
 10
4654.728924375581
 20
5626.760892880318
 30
0.0
 11
4654.728924375581
 21
5629.112130509856
 31
0.0
  0
LINE
  5
629F
330
1A
100
AcDbEntity
  8
Visible (ISO)
100
AcDbLine
 10
4654.728924375581
 20
5629.112130509856
 30
0.0
 11
4654.728924375581
 21
5634.061717665471
 31
0.0
  0
LINE
  5
62A0
330
1A
100
AcDbEntity
  8
Visible (ISO)
100
AcDbLine
 10
4654.728924375581
 20
5634.061717665471
 30
0.0
 11
4654.728924375581
 21
5634.561717665471
 31
0.0
  0
LINE
  5
62A1
330
1A
100
AcDbEntity
  8
Visible (ISO)
100
AcDbLine
 10
4654.728924375574
 20
5636.061717665469
 30
0.0
 11
4654.728924375578
 21
5634.561717665471
 31
0.0
  0
LINE
  5
62A2
330
1A
100
AcDbEntity
  8
Visible (ISO)
100
AcDbLine
 10
4646.728924375579
 20
5634.561717665471
 30
0.0
 11
4654.728924375581
 21
5634.561717665471
 31
0.0
  0
LINE
  5
62A3
330
1A
100
AcDbEntity
  8
Hidden (ISO)
100
AcDbLine
 10
4646.728924375582
 20
5636.061717665471
 30
0.0
 11
4654.728924375578
 21
5636.061717665471
 31
0.0
  0
LINE
  5
62A4
330
1A
100
AcDbEntity
  8
Hidden (ISO)
100
AcDbLine
 10
4646.728924375582
 20
5495.161717665471
 30
0.0
 11
4654.728924375574
 21
5495.161717665471
 31
0.0
  0
LINE
  5
62A5
330
1A
100
AcDbEntity
  8
Hidden (ISO)
100
AcDbLine
 10
4646.728924375582
 20
5481.161717665471
 30
0.0
 11
4654.728924375574
 21
5481.161717665471
 31
0.0
  0
LINE
  5
62A6
330
1A
100
AcDbEntity
  8
Hidden (ISO)
100
AcDbLine
 10
4646.728924375582
 20
5525.161717665471
 30
0.0
 11
4654.728924375574
 21
5525.161717665471
 31
0.0
  0
LINE
  5
62A7
330
1A
100
AcDbEntity
  8
Hidden (ISO)
100
AcDbLine
 10
4646.728924375582
 20
5511.161717665471
 30
0.0
 11
4654.728924375574
 21
5511.161717665471
 31
0.0
  0
LINE
  5
62A8
330
1A
100
AcDbEntity
  8
Hidden (ISO)
100
AcDbLine
 10
4646.728924375582
 20
5465.161717665471
 30
0.0
 11
4654.728924375574
 21
5465.161717665471
 31
0.0
  0
LINE
  5
62A9
330
1A
100
AcDbEntity
  8
Hidden (ISO)
100
AcDbLine
 10
4646.728924375582
 20
5451.16171766547
 30
0.0
 11
4654.728924375574
 21
5451.16171766547
 31
0.0
  0
LINE
  5
62AA
330
1A
100
AcDbEntity
  8
Visible (ISO)
100
AcDbLine
 10
4595.872215041816
 20
5375.691552765972
 30
0.0
 11
4595.629393576223
 21
5375.691552765972
 31
0.0
  0
LINE
  5
62AB
330
1A
100
AcDbEntity
  8
Visible (ISO)
100
AcDbLine
 10
4595.629393576223
 20
5383.691552765972
 30
0.0
 11
4595.872215041816
 21
5383.691552765972
 31
0.0
  0
LINE
  5
62AC
330
1A
100
AcDbEntity
  8
Visible (ISO)
100
AcDbLine
 10
4600.001778055914
 20
5383.691552765971
 30
0.0
 11
4600.258956590327
 21
5383.691552765971
 31
0.0
  0
LINE
  5
62AD
330
1A
100
AcDbEntity
  8
Visible (ISO)
100
AcDbLine
 10
4567.758956590321
 20
5383.691552765971
 30
0.0
 11
4568.016135124731
 21
5383.691552765971
 31
0.0
  0
LINE
  5
62AE
330
1A
100
AcDbEntity
  8
Visible (ISO)
100
AcDbLine
 10
4572.145698138835
 20
5383.691552765972
 30
0.0
 11
4572.388519604422
 21
5383.691552765972
 31
0.0
  0
LINE
  5
62AF
330
1A
100
AcDbEntity
  8
Visible (ISO)
100
AcDbLine
 10
4572.388519604422
 20
5375.691552765972
 30
0.0
 11
4572.145698138835
 21
5375.691552765972
 31
0.0
  0
LINE
  5
62B0
330
1A
100
AcDbEntity
  8
Visible (ISO)
100
AcDbLine
 10
4568.016135124731
 20
5375.691552765971
 30
0.0
 11
4567.758956590321
 21
5375.691552765971
 31
0.0
  0
LINE
  5
62B1
330
1A
100
AcDbEntity
  8
Visible (ISO)
100
AcDbLine
 10
4567.758956590321
 20
5383.691552765971
 30
0.0
 11
4567.758956590321
 21
5375.691552765971
 31
0.0
  0
LINE
  5
62B2
330
1A
100
AcDbEntity
  8
Visible (ISO)
100
AcDbLine
 10
4600.258956590327
 20
5375.691552765971
 30
0.0
 11
4600.001778055914
 21
5375.691552765971
 31
0.0
  0
LINE
  5
62B3
330
1A
100
AcDbEntity
  8
Visible (ISO)
100
AcDbLine
 10
4600.258956590327
 20
5375.691552765971
 30
0.0
 11
4600.258956590327
 21
5383.691552765971
 31
0.0
  0
LINE
  5
62B4
330
1A
100
AcDbEntity
  8
Visible (ISO)
100
AcDbLine
 10
4595.629393576223
 20
5383.691552765972
 30
0.0
 11
4572.388519604422
 21
5383.691552765972
 31
0.0
  0
LINE
  5
62B5
330
1A
100
AcDbEntity
  8
Visible (ISO)
100
AcDbLine
 10
4572.388519604422
 20
5375.691552765972
 30
0.0
 11
4595.629393576223
 21
5375.691552765972
 31
0.0
  0
LINE
  5
62B6
330
1A
100
AcDbEntity
  8
Visible (ISO)
100
AcDbLine
 10
4600.001778055914
 20
5383.691552765971
 30
0.0
 11
4595.872215041816
 21
5383.691552765972
 31
0.0
  0
LINE
  5
62B7
330
1A
100
AcDbEntity
  8
Visible (ISO)
100
AcDbLine
 10
4602.11436478028
 20
5383.691552765963
 30
0.0
 11
4600.258956590327
 21
5383.691552765964
 31
0.0
  0
LINE
  5
62B8
330
1A
100
AcDbEntity
  8
Visible (ISO)
100
AcDbLine
 10
4602.11436478028
 20
5383.691552765963
 30
0.0
 11
4604.008956590327
 21
5383.691552765962
 31
0.0
  0
LINE
  5
62B9
330
1A
100
AcDbEntity
  8
Visible (ISO)
100
AcDbLine
 10
4564.008956590321
 20
5383.691552765962
 30
0.0
 11
4565.903548400363
 21
5383.691552765963
 31
0.0
  0
LINE
  5
62BA
330
1A
100
AcDbEntity
  8
Visible (ISO)
100
AcDbLine
 10
4567.758956590321
 20
5383.691552765964
 30
0.0
 11
4565.903548400363
 21
5383.691552765963
 31
0.0
  0
LINE
  5
62BB
330
1A
100
AcDbEntity
  8
Visible (ISO)
100
AcDbLine
 10
4572.145698138835
 20
5383.691552765972
 30
0.0
 11
4568.016135124731
 21
5383.691552765971
 31
0.0
  0
LINE
  5
62BC
330
1A
100
AcDbEntity
  8
Visible (ISO)
100
AcDbLine
 10
4568.016135124731
 20
5375.691552765971
 30
0.0
 11
4572.145698138835
 21
5375.691552765972
 31
0.0
  0
LINE
  5
62BD
330
1A
100
AcDbEntity
  8
Visible (ISO)
100
AcDbLine
 10
4564.008956590321
 20
5383.691552765962
 30
0.0
 11
4564.008956590321
 21
5375.691552765961
 31
0.0
  0
LINE
  5
62BE
330
1A
100
AcDbEntity
  8
Visible (ISO)
100
AcDbLine
 10
4565.903548400363
 20
5375.691552765963
 30
0.0
 11
4564.008956590321
 21
5375.691552765962
 31
0.0
  0
LINE
  5
62BF
330
1A
100
AcDbEntity
  8
Visible (ISO)
100
AcDbLine
 10
4565.903548400363
 20
5375.691552765963
 30
0.0
 11
4567.758956590321
 21
5375.691552765964
 31
0.0
  0
LINE
  5
62C0
330
1A
100
AcDbEntity
  8
Visible (ISO)
100
AcDbLine
 10
4595.872215041816
 20
5375.691552765972
 30
0.0
 11
4600.001778055914
 21
5375.691552765971
 31
0.0
  0
LINE
  5
62C1
330
1A
100
AcDbEntity
  8
Visible (ISO)
100
AcDbLine
 10
4600.258956590327
 20
5375.691552765964
 30
0.0
 11
4602.11436478028
 21
5375.691552765963
 31
0.0
  0
LINE
  5
62C2
330
1A
100
AcDbEntity
  8
Visible (ISO)
100
AcDbLine
 10
4604.008956590327
 20
5375.691552765962
 30
0.0
 11
4602.11436478028
 21
5375.691552765963
 31
0.0
  0
LINE
  5
62C3
330
1A
100
AcDbEntity
  8
Visible (ISO)
100
AcDbLine
 10
4604.008956590327
 20
5383.691552765962
 30
0.0
 11
4604.008956590327
 21
5375.691552765962
 31
0.0
  0
LINE
  5
62C4
330
1A
100
AcDbEntity
  8
Hidden (ISO)
100
AcDbLine
 10
4577.258956590321
 20
5383.691552765967
 30
0.0
 11
4577.258956590321
 21
5375.691552765972
 31
0.0
  0
LINE
  5
62C5
330
1A
100
AcDbEntity
  8
Hidden (ISO)
100
AcDbLine
 10
4575.008956590321
 20
5383.691552765967
 30
0.0
 11
4575.008956590321
 21
5375.691552765972
 31
0.0
  0
LINE
  5
62C6
330
1A
100
AcDbEntity
  8
Hidden (ISO)
100
AcDbLine
 10
4593.008956590327
 20
5383.691552765967
 30
0.0
 11
4593.008956590327
 21
5375.691552765972
 31
0.0
  0
LINE
  5
62C7
330
1A
100
AcDbEntity
  8
Hidden (ISO)
100
AcDbLine
 10
4590.758956590327
 20
5383.691552765967
 30
0.0
 11
4590.758956590327
 21
5375.691552765972
 31
0.0
  0
LINE
  5
62C8
330
1A
100
AcDbEntity
  8
Hidden (ISO)
100
AcDbLine
 10
4591.008956590321
 20
5383.691552765933
 30
0.0
 11
4591.008956590321
 21
5375.691552765972
 31
0.0
  0
LINE
  5
62C9
330
1A
100
AcDbEntity
  8
Hidden (ISO)
100
AcDbLine
 10
4577.008956590321
 20
5383.691552765933
 30
0.0
 11
4577.008956590321
 21
5375.691552765972
 31
0.0
  0
CIRCLE
  5
62CA
330
1A
100
AcDbEntity
  8
Visible (ISO)
100
AcDbCircle
 10
4575.853012285914
 20
4483.523991994506
 30
0.0
 40
7.0
  0
CIRCLE
  5
62CB
330
1A
100
AcDbEntity
  8
Visible (ISO)
100
AcDbCircle
 10
4575.853012285924
 20
4453.523991994506
 30
0.0
 40
7.0
  0
CIRCLE
  5
62CC
330
1A
100
AcDbEntity
  8
Visible (ISO)
100
AcDbCircle
 10
4575.853012285914
 20
4423.523991994506
 30
0.0
 40
7.0
  0
LINE
  5
62CD
330
1A
100
AcDbEntity
  8
Visible (ISO)
100
AcDbLine
 10
4590.853012285925
 20
4403.523991994506
 30
0.0
 11
4560.853012285916
 21
4403.523991994506
 31
0.0
  0
ARC
  5
62CE
330
1A
100
AcDbEntity
  8
Visible (ISO)
100
AcDbCircle
 10
4560.853012285913
 20
4408.523991994505
 30
0.0
 40
5.0
100
AcDbArc
 50
180.0
 51
270.0
  0
LINE
  5
62CF
330
1A
100
AcDbEntity
  8
Visible (ISO)
100
AcDbLine
 10
4555.853012285914
 20
4408.523991994505
 30
0.0
 11
4555.853012285914
 21
4613.106637253866
 31
0.0
  0
LINE
  5
62D0
330
1A
100
AcDbEntity
  8
Visible (ISO)
100
AcDbLine
 10
4595.853012285926
 20
4613.106637253866
 30
0.0
 11
4595.853012285926
 21
4408.523991994505
 31
0.0
  0
ARC
  5
62D1
330
1A
100
AcDbEntity
  8
Visible (ISO)
100
AcDbCircle
 10
4590.853012285925
 20
4408.523991994505
 30
0.0
 40
5.000000000000004
100
AcDbArc
 50
270.0
 51
0.0
  0
LINE
  5
62D2
330
1A
100
AcDbEntity
  8
Visible (ISO)
100
AcDbLine
 10
4587.716270737414
 20
4359.553827095012
 30
0.0
 11
4587.473449271825
 21
4359.553827095012
 31
0.0
  0
LINE
  5
62D3
330
1A
100
AcDbEntity
  8
Visible (ISO)
100
AcDbLine
 10
4587.473449271825
 20
4365.553827095012
 30
0.0
 11
4587.716270737414
 21
4365.553827095012
 31
0.0
  0
LINE
  5
62D4
330
1A
100
AcDbEntity
  8
Visible (ISO)
100
AcDbLine
 10
4591.845833751513
 20
4365.553827095011
 30
0.0
 11
4592.103012285924
 21
4365.553827095011
 31
0.0
  0
LINE
  5
62D5
330
1A
100
AcDbEntity
  8
Visible (ISO)
100
AcDbLine
 10
4559.603012285914
 20
4365.553827095011
 30
0.0
 11
4559.860190820326
 21
4365.553827095011
 31
0.0
  0
LINE
  5
62D6
330
1A
100
AcDbEntity
  8
Visible (ISO)
100
AcDbLine
 10
4563.989753834425
 20
4365.553827095012
 30
0.0
 11
4564.232575300013
 21
4365.553827095012
 31
0.0
  0
LINE
  5
62D7
330
1A
100
AcDbEntity
  8
Visible (ISO)
100
AcDbLine
 10
4564.232575300013
 20
4359.553827095012
 30
0.0
 11
4563.989753834425
 21
4359.553827095012
 31
0.0
  0
LINE
  5
62D8
330
1A
100
AcDbEntity
  8
Visible (ISO)
100
AcDbLine
 10
4559.860190820326
 20
4359.553827095011
 30
0.0
 11
4559.603012285914
 21
4359.553827095011
 31
0.0
  0
LINE
  5
62D9
330
1A
100
AcDbEntity
  8
Visible (ISO)
100
AcDbLine
 10
4559.603012285914
 20
4365.553827095011
 30
0.0
 11
4559.603012285914
 21
4359.553827095011
 31
0.0
  0
LINE
  5
62DA
330
1A
100
AcDbEntity
  8
Visible (ISO)
100
AcDbLine
 10
4592.103012285924
 20
4359.553827095011
 30
0.0
 11
4591.845833751513
 21
4359.553827095011
 31
0.0
  0
LINE
  5
62DB
330
1A
100
AcDbEntity
  8
Visible (ISO)
100
AcDbLine
 10
4592.103012285924
 20
4359.553827095011
 30
0.0
 11
4592.103012285924
 21
4365.553827095011
 31
0.0
  0
LINE
  5
62DC
330
1A
100
AcDbEntity
  8
Visible (ISO)
100
AcDbLine
 10
4587.473449271825
 20
4365.553827095012
 30
0.0
 11
4564.232575300013
 21
4365.553827095012
 31
0.0
  0
LINE
  5
62DD
330
1A
100
AcDbEntity
  8
Visible (ISO)
100
AcDbLine
 10
4564.232575300013
 20
4359.553827095012
 30
0.0
 11
4587.473449271825
 21
4359.553827095012
 31
0.0
  0
LINE
  5
62DE
330
1A
100
AcDbEntity
  8
Visible (ISO)
100
AcDbLine
 10
4591.845833751513
 20
4365.553827095011
 30
0.0
 11
4587.716270737414
 21
4365.553827095012
 31
0.0
  0
LINE
  5
62DF
330
1A
100
AcDbEntity
  8
Visible (ISO)
100
AcDbLine
 10
4593.958420475878
 20
4365.553827095003
 30
0.0
 11
4592.103012285924
 21
4365.553827095005
 31
0.0
  0
LINE
  5
62E0
330
1A
100
AcDbEntity
  8
Visible (ISO)
100
AcDbLine
 10
4593.958420475878
 20
4365.553827095005
 30
0.0
 11
4595.853012285926
 21
4365.553827095001
 31
0.0
  0
LINE
  5
62E1
330
1A
100
AcDbEntity
  8
Visible (ISO)
100
AcDbLine
 10
4555.853012285914
 20
4365.553827095001
 30
0.0
 11
4557.74760409596
 21
4365.553827095005
 31
0.0
  0
LINE
  5
62E2
330
1A
100
AcDbEntity
  8
Visible (ISO)
100
AcDbLine
 10
4559.603012285914
 20
4365.553827095005
 30
0.0
 11
4557.74760409596
 21
4365.553827095003
 31
0.0
  0
LINE
  5
62E3
330
1A
100
AcDbEntity
  8
Visible (ISO)
100
AcDbLine
 10
4563.989753834425
 20
4365.553827095012
 30
0.0
 11
4559.860190820326
 21
4365.553827095011
 31
0.0
  0
LINE
  5
62E4
330
1A
100
AcDbEntity
  8
Visible (ISO)
100
AcDbLine
 10
4559.860190820326
 20
4359.553827095011
 30
0.0
 11
4563.989753834425
 21
4359.553827095012
 31
0.0
  0
LINE
  5
62E5
330
1A
100
AcDbEntity
  8
Visible (ISO)
100
AcDbLine
 10
4555.853012285914
 20
4365.553827095001
 30
0.0
 11
4555.853012285914
 21
4359.553827095002
 31
0.0
  0
LINE
  5
62E6
330
1A
100
AcDbEntity
  8
Visible (ISO)
100
AcDbLine
 10
4557.74760409596
 20
4359.553827095003
 30
0.0
 11
4555.853012285914
 21
4359.553827095002
 31
0.0
  0
LINE
  5
62E7
330
1A
100
AcDbEntity
  8
Visible (ISO)
100
AcDbLine
 10
4557.74760409596
 20
4359.553827095003
 30
0.0
 11
4559.603012285914
 21
4359.553827095004
 31
0.0
  0
LINE
  5
62E8
330
1A
100
AcDbEntity
  8
Visible (ISO)
100
AcDbLine
 10
4587.716270737414
 20
4359.553827095012
 30
0.0
 11
4591.845833751513
 21
4359.553827095011
 31
0.0
  0
LINE
  5
62E9
330
1A
100
AcDbEntity
  8
Visible (ISO)
100
AcDbLine
 10
4592.103012285924
 20
4359.553827095004
 30
0.0
 11
4593.958420475878
 21
4359.553827095003
 31
0.0
  0
LINE
  5
62EA
330
1A
100
AcDbEntity
  8
Visible (ISO)
100
AcDbLine
 10
4595.853012285926
 20
4359.553827095002
 30
0.0
 11
4593.958420475878
 21
4359.553827095003
 31
0.0
  0
LINE
  5
62EB
330
1A
100
AcDbEntity
  8
Visible (ISO)
100
AcDbLine
 10
4595.853012285926
 20
4365.553827095001
 30
0.0
 11
4595.853012285926
 21
4359.553827095002
 31
0.0
  0
LINE
  5
62EC
330
1A
100
AcDbEntity
  8
Hidden (ISO)
100
AcDbLine
 10
4569.103012285917
 20
4365.553827095006
 30
0.0
 11
4569.103012285917
 21
4359.553827095006
 31
0.0
  0
LINE
  5
62ED
330
1A
100
AcDbEntity
  8
Hidden (ISO)
100
AcDbLine
 10
4566.853012285917
 20
4365.553827095008
 30
0.0
 11
4566.853012285917
 21
4359.553827095008
 31
0.0
  0
LINE
  5
62EE
330
1A
100
AcDbEntity
  8
Hidden (ISO)
100
AcDbLine
 10
4584.853012285925
 20
4365.553827095008
 30
0.0
 11
4584.853012285925
 21
4359.553827095008
 31
0.0
  0
LINE
  5
62EF
330
1A
100
AcDbEntity
  8
Hidden (ISO)
100
AcDbLine
 10
4582.603012285924
 20
4365.553827095006
 30
0.0
 11
4582.603012285924
 21
4359.553827095006
 31
0.0
  0
LINE
  5
62F0
330
1A
100
AcDbEntity
  8
Hidden (ISO)
100
AcDbLine
 10
4582.853012285914
 20
4365.553827094964
 30
0.0
 11
4582.853012285914
 21
4359.553827094964
 31
0.0
  0
LINE
  5
62F1
330
1A
100
AcDbEntity
  8
Hidden (ISO)
100
AcDbLine
 10
4568.853012285914
 20
4365.553827094964
 30
0.0
 11
4568.853012285914
 21
4359.553827094964
 31
0.0
  0
LINE
  5
62F2
330
1A
100
AcDbEntity
  8
Visible (ISO)
100
AcDbLine
 10
4639.581590112759
 20
4646.023991994507
 30
0.0
 11
4633.581590112759
 21
4646.023991994507
 31
0.0
  0
LINE
  5
62F3
330
1A
100
AcDbEntity
  8
Visible (ISO)
100
AcDbLine
 10
4633.581590112755
 20
4643.229790320007
 30
0.0
 11
4633.581590112755
 21
4643.666868958067
 31
0.0
  0
LINE
  5
62F4
330
1A
100
AcDbEntity
  8
Visible (ISO)
100
AcDbLine
 10
4633.581590112759
 20
4645.961070632568
 30
0.0
 11
4633.581590112759
 21
4646.023991994507
 31
0.0
  0
LINE
  5
62F5
330
1A
100
AcDbEntity
  8
Visible (ISO)
100
AcDbLine
 10
4639.581590112759
 20
4646.023991994508
 30
0.0
 11
4639.581590112759
 21
4645.961070632568
 31
0.0
  0
LINE
  5
62F6
330
1A
100
AcDbEntity
  8
Visible (ISO)
100
AcDbLine
 10
4639.581590112755
 20
4643.666868958067
 30
0.0
 11
4639.581590112755
 21
4643.229790320007
 31
0.0
  0
LINE
  5
62F7
330
1A
100
AcDbEntity
  8
Visible (ISO)
100
AcDbLine
 10
4633.581590112755
 20
4403.523991994506
 30
0.0
 11
4633.581590112751
 21
4408.523991994505
 31
0.0
  0
LINE
  5
62F8
330
1A
100
AcDbEntity
  8
Visible (ISO)
100
AcDbLine
 10
4633.581590112751
 20
4613.106637253866
 30
0.0
 11
4633.581590112751
 21
4408.523991994505
 31
0.0
  0
LINE
  5
62F9
330
1A
100
AcDbEntity
  8
Visible (ISO)
100
AcDbLine
 10
4633.581590112751
 20
4613.106637253866
 30
0.0
 11
4633.581590112755
 21
4617.025366636428
 31
0.0
  0
LINE
  5
62FA
330
1A
100
AcDbEntity
  8
Visible (ISO)
100
AcDbLine
 10
4633.581590112759
 20
4625.123167209351
 30
0.0
 11
4633.581590112755
 21
4617.025366636428
 31
0.0
  0
LINE
  5
62FB
330
1A
100
AcDbEntity
  8
Visible (ISO)
100
AcDbLine
 10
4633.581590112759
 20
4627.47440483889
 30
0.0
 11
4633.581590112759
 21
4625.123167209351
 31
0.0
  0
LINE
  5
62FC
330
1A
100
AcDbEntity
  8
Visible (ISO)
100
AcDbLine
 10
4633.581590112759
 20
4632.423991994506
 30
0.0
 11
4633.581590112759
 21
4627.47440483889
 31
0.0
  0
LINE
  5
62FD
330
1A
100
AcDbEntity
  8
Visible (ISO)
100
AcDbLine
 10
4633.581590112759
 20
4632.923991994505
 30
0.0
 11
4633.581590112759
 21
4632.423991994506
 31
0.0
  0
LINE
  5
62FE
330
1A
100
AcDbEntity
  8
Visible (ISO)
100
AcDbLine
 10
4633.581590112755
 20
4632.923991994505
 30
0.0
 11
4633.581590112755
 21
4634.423991994506
 31
0.0
  0
LINE
  5
62FF
330
1A
100
AcDbEntity
  8
Visible (ISO)
100
AcDbLine
 10
4633.581590112755
 20
4643.229790320007
 30
0.0
 11
4633.581590112755
 21
4634.423991994506
 31
0.0
  0
LINE
  5
6300
330
1A
100
AcDbEntity
  8
Visible (ISO)
100
AcDbLine
 10
4633.581590112759
 20
4645.961070632568
 30
0.0
 11
4633.581590112755
 21
4643.666868958067
 31
0.0
  0
LINE
  5
6301
330
1A
100
AcDbEntity
  8
Visible (ISO)
100
AcDbLine
 10
4639.581590112755
 20
4643.666868958067
 30
0.0
 11
4639.581590112759
 21
4645.961070632568
 31
0.0
  0
LINE
  5
6302
330
1A
100
AcDbEntity
  8
Visible (ISO)
100
AcDbLine
 10
4639.581590112755
 20
4634.423991994506
 30
0.0
 11
4639.581590112755
 21
4643.229790320007
 31
0.0
  0
LINE
  5
6303
330
1A
100
AcDbEntity
  8
Visible (ISO)
100
AcDbLine
 10
4633.581590112755
 20
4403.523991994506
 30
0.0
 11
4639.581590112755
 21
4403.523991994506
 31
0.0
  0
LINE
  5
6304
330
1A
100
AcDbEntity
  8
Visible (ISO)
100
AcDbLine
 10
4639.581590112752
 20
4408.523991994505
 30
0.0
 11
4639.581590112755
 21
4403.523991994506
 31
0.0
  0
LINE
  5
6305
330
1A
100
AcDbEntity
  8
Visible (ISO)
100
AcDbLine
 10
4639.581590112752
 20
4408.523991994505
 30
0.0
 11
4639.581590112752
 21
4613.106637253866
 31
0.0
  0
LINE
  5
6306
330
1A
100
AcDbEntity
  8
Visible (ISO)
100
AcDbLine
 10
4639.581590112755
 20
4617.025366636428
 30
0.0
 11
4639.581590112752
 21
4613.106637253866
 31
0.0
  0
LINE
  5
6307
330
1A
100
AcDbEntity
  8
Visible (ISO)
100
AcDbLine
 10
4639.581590112755
 20
4617.025366636428
 30
0.0
 11
4639.581590112759
 21
4625.123167209351
 31
0.0
  0
LINE
  5
6308
330
1A
100
AcDbEntity
  8
Visible (ISO)
100
AcDbLine
 10
4639.581590112759
 20
4625.123167209351
 30
0.0
 11
4639.581590112759
 21
4627.47440483889
 31
0.0
  0
LINE
  5
6309
330
1A
100
AcDbEntity
  8
Visible (ISO)
100
AcDbLine
 10
4639.581590112759
 20
4627.47440483889
 30
0.0
 11
4639.581590112759
 21
4632.423991994506
 31
0.0
  0
LINE
  5
630A
330
1A
100
AcDbEntity
  8
Visible (ISO)
100
AcDbLine
 10
4639.581590112759
 20
4632.423991994506
 30
0.0
 11
4639.581590112759
 21
4632.923991994505
 31
0.0
  0
LINE
  5
630B
330
1A
100
AcDbEntity
  8
Visible (ISO)
100
AcDbLine
 10
4639.581590112755
 20
4634.423991994506
 30
0.0
 11
4639.581590112755
 21
4632.923991994505
 31
0.0
  0
LINE
  5
630C
330
1A
100
AcDbEntity
  8
Visible (ISO)
100
AcDbLine
 10
4633.581590112755
 20
4632.923991994505
 30
0.0
 11
4639.581590112755
 21
4632.923991994505
 31
0.0
  0
LINE
  5
630D
330
1A
100
AcDbEntity
  8
Hidden (ISO)
100
AcDbLine
 10
4633.581590112759
 20
4634.423991994506
 30
0.0
 11
4639.581590112759
 21
4634.423991994506
 31
0.0
  0
LINE
  5
630E
330
1A
100
AcDbEntity
  8
Hidden (ISO)
100
AcDbLine
 10
4633.581590112759
 20
4490.523991994506
 30
0.0
 11
4639.581590112759
 21
4490.523991994506
 31
0.0
  0
LINE
  5
630F
330
1A
100
AcDbEntity
  8
Hidden (ISO)
100
AcDbLine
 10
4633.581590112759
 20
4476.523991994506
 30
0.0
 11
4639.581590112759
 21
4476.523991994506
 31
0.0
  0
LINE
  5
6310
330
1A
100
AcDbEntity
  8
Hidden (ISO)
100
AcDbLine
 10
4633.581590112759
 20
4460.523991994506
 30
0.0
 11
4639.581590112759
 21
4460.523991994506
 31
0.0
  0
LINE
  5
6311
330
1A
100
AcDbEntity
  8
Hidden (ISO)
100
AcDbLine
 10
4633.581590112759
 20
4446.523991994506
 30
0.0
 11
4639.581590112759
 21
4446.523991994506
 31
0.0
  0
LINE
  5
6312
330
1A
100
AcDbEntity
  8
Hidden (ISO)
100
AcDbLine
 10
4633.581590112759
 20
4430.523991994506
 30
0.0
 11
4639.581590112759
 21
4430.523991994506
 31
0.0
  0
LINE
  5
6313
330
1A
100
AcDbEntity
  8
Hidden (ISO)
100
AcDbLine
 10
4633.581590112759
 20
4416.523991994504
 30
0.0
 11
4639.581590112759
 21
4416.523991994504
 31
0.0
  0
ELLIPSE
  5
6314
330
1A
100
AcDbEntity
  8
Visible (ISO)
100
AcDbEllipse
 10
3998.782862339535
 20
7860.487898823382
 30
0.0
 11
-6.999999999999985
 21
-0.0000000000004249
 31
0.0
210
0.0
220
0.0
230
1.0
 40
0.577350269189626
 41
3.792730112599666
 42
5.632047848169082
  0
ELLIPSE
  5
6315
330
1A
100
AcDbEntity
  8
Visible (ISO)
100
AcDbEllipse
 10
3998.782862339535
 20
7865.386878308946
 30
0.0
 11
7.0
 21
0.0000000000000069
 31
0.0
210
0.0
220
0.0
230
1.0
 40
0.577350269189626
 41
0.0
 42
6.283185307179584
  0
ELLIPSE
  5
6316
330
1A
100
AcDbEntity
  8
Visible (ISO)
100
AcDbEllipse
 10
3977.569658903938
 20
7872.735347537298
 30
0.0
 11
-6.999999999999985
 21
-0.0000000000004249
 31
0.0
210
0.0
220
0.0
230
1.0
 40
0.577350269189626
 41
3.792730112599673
 42
5.632047848169088
  0
ELLIPSE
  5
6317
330
1A
100
AcDbEntity
  8
Visible (ISO)
100
AcDbEllipse
 10
3977.569658903938
 20
7877.634327022862
 30
0.0
 11
7.0
 21
0.0000000000000069
 31
0.0
210
0.0
220
0.0
230
1.0
 40
0.577350269189626
 41
0.0
 42
6.283185307179584
  0
ELLIPSE
  5
6318
330
1A
100
AcDbEntity
  8
Visible (ISO)
100
AcDbEllipse
 10
3956.356455468343
 20
7884.982796251212
 30
0.0
 11
-7.0
 21
-0.0000000000004244
 31
0.0
210
0.0
220
0.0
230
1.0
 40
0.577350269189626
 41
3.792730112599673
 42
5.632047848169088
  0
ELLIPSE
  5
6319
330
1A
100
AcDbEntity
  8
Visible (ISO)
100
AcDbEllipse
 10
3956.356455468343
 20
7889.881775736779
 30
0.0
 11
7.0
 21
0.0000000000000069
 31
0.0
210
0.0
220
0.0
230
1.0
 40
0.577350269189626
 41
0.0
 42
6.283185307179584
  0
ELLIPSE
  5
631A
330
1A
100
AcDbEntity
  8
Visible (ISO)
100
AcDbEllipse
 10
4018.496690403322
 20
7844.517047301687
 30
0.0
 11
-0.4999999999999363
 21
0.0000000000000294
 31
0.0
210
0.0
220
0.0
230
1.0
 40
0.577350269189626
 41
1.849095985799916
 42
2.356194490192462
  0
ELLIPSE
  5
631B
330
1A
100
AcDbEntity
  8
Visible (ISO)
100
AcDbEllipse
 10
4018.496690403322
 20
7839.618067816122
 30
0.0
 11
0.4999999999999351
 21
0.0000000000000004
 31
0.0
210
0.0
220
0.0
230
1.0
 40
0.577350269189626
 41
4.990688639389587
 42
5.49778714378201
  0
ELLIPSE
  5
631C
330
1A
100
AcDbEntity
  8
Visible (ISO)
100
AcDbEllipse
 10
4013.954402831267
 20
7838.868784686845
 30
0.0
 11
0.5000000000000493
 21
0.0000000000000303
 31
0.0
210
0.0
220
0.0
230
1.0
 40
0.577350269189626
 41
3.926990816986963
 42
4.990688639389531
  0
ELLIPSE
  5
631D
330
1A
100
AcDbEntity
  8
Visible (ISO)
100
AcDbEllipse
 10
4036.228266438643
 20
7851.728605836457
 30
0.0
 11
0.4999999999968117
 21
0.0000000000000006
 31
0.0
210
0.0
220
0.0
230
1.0
 40
0.577350269189626
 41
6.004885648173817
 42
6.283185307180692
  0
ELLIPSE
  5
631E
330
1A
100
AcDbEntity
  8
Visible (ISO)
100
AcDbEllipse
 10
4034.930469989483
 20
7849.106114883993
 30
0.0
 11
0.5000000000000071
 21
0.0000000000000005
 31
0.0
210
0.0
220
0.0
230
1.0
 40
0.577350269189626
 41
5.497787143781976
 42
6.004885648174361
  0
ELLIPSE
  5
631F
330
1A
100
AcDbEntity
  8
Visible (ISO)
100
AcDbEllipse
 10
4034.930469989483
 20
7854.00509436956
 30
0.0
 11
0.5000000000000067
 21
0.0000000000000005
 31
0.0
210
0.0
220
0.0
230
1.0
 40
0.577350269189626
 41
5.497787143781976
 42
6.004885648174361
  0
ELLIPSE
  5
6320
330
1A
100
AcDbEntity
  8
Visible (ISO)
100
AcDbEllipse
 10
4036.228266438643
 20
7856.627585322023
 30
0.0
 11
0.5000000000000493
 21
0.0000000000000005
 31
0.0
210
0.0
220
0.0
230
1.0
 40
0.577350269189626
 41
6.004885648174576
 42
7.068583470577022
  0
ELLIPSE
  5
6321
330
1A
100
AcDbEntity
  8
Visible (ISO)
100
AcDbEllipse
 10
4013.954402831267
 20
7843.767764172412
 30
0.0
 11
-0.5000000000000338
 21
-0.0000000000000005
 31
0.0
210
0.0
220
0.0
230
1.0
 40
0.5773502691896261
 41
0.7853981633974616
 42
1.849095985799879
  0
LINE
  5
6322
330
1A
100
AcDbEntity
  8
Visible (ISO)
100
AcDbLine
 10
4036.728266438646
 20
7851.728605836457
 30
0.0
 11
4036.728266438646
 21
7856.627585322023
 31
0.0
  0
LINE
  5
6323
330
1A
100
AcDbEntity
  8
Visible (ISO)
100
AcDbLine
 10
4018.850243793915
 20
7839.413943670887
 30
0.0
 11
4035.284023380076
 21
7848.901990738761
 31
0.0
  0
LINE
  5
6324
330
1A
100
AcDbEntity
  8
Visible (ISO)
100
AcDbLine
 10
4035.284023380076
 20
7853.800970224327
 30
0.0
 11
4018.850243793915
 21
7844.312923156454
 31
0.0
  0
LINE
  5
6325
330
1A
100
AcDbEntity
  8
Visible (ISO)
100
AcDbLine
 10
4014.091763395214
 20
7838.591216631844
 30
0.0
 11
4018.634050967268
 21
7839.340499761121
 31
0.0
  0
LINE
  5
6326
330
1A
100
AcDbEntity
  8
Visible (ISO)
100
AcDbLine
 10
4007.374209730953
 20
7842.259612654169
 30
0.0
 11
4013.60084944067
 21
7838.664660541613
 31
0.0
  0
ELLIPSE
  5
6327
330
1A
100
AcDbEntity
  8
Visible (ISO)
100
AcDbEllipse
 10
4008.434869902731
 20
7842.871985089866
 30
0.0
 11
-1.500000000000011
 21
-0.0000000000000101
 31
0.0
210
0.0
220
0.0
230
1.0
 40
0.577350269189626
 41
0.0
 42
0.785398163397419
  0
ELLIPSE
  5
6328
330
1A
100
AcDbEntity
  8
Visible (ISO)
100
AcDbEllipse
 10
4007.056303604481
 20
7847.750383617894
 30
0.0
 11
2.999999999999866
 21
0.0000000000000031
 31
0.0
210
0.0
220
0.0
230
1.0
 40
0.577350269189626
 41
0.8067151326700923
 42
1.68607245276587
  0
LINE
  5
6329
330
1A
100
AcDbEntity
  8
Visible (ISO)
100
AcDbLine
 10
3993.759552043945
 20
7848.605104491364
 30
0.0
 11
4006.711240646136
 21
7849.470938911473
 31
0.0
  0
ELLIPSE
  5
632A
330
1A
100
AcDbEntity
  8
Visible (ISO)
100
AcDbEllipse
 10
3993.184447113368
 20
7851.472696647326
 30
0.0
 11
5.000000000000011
 21
0.0000000000003034
 31
0.0
210
0.0
220
0.0
230
1.0
 40
0.577350269189626
 41
3.926990816986997
 42
4.827665106355527
  0
LINE
  5
632B
330
1A
100
AcDbEntity
  8
Visible (ISO)
100
AcDbLine
 10
3931.607718126814
 20
7882.941554798893
 30
0.0
 11
3989.648913207437
 21
7849.431455195007
 31
0.0
  0
ELLIPSE
  5
632C
330
1A
100
AcDbEntity
  8
Visible (ISO)
100
AcDbEllipse
 10
3935.143252032746
 20
7884.982796251212
 30
0.0
 11
-5.000000000000023
 21
-0.0000000000000097
 31
0.0
210
0.0
220
0.0
230
1.0
 40
0.577350269189626
 41
0.0
 42
0.7853981633974332
  0
ELLIPSE
  5
632D
330
1A
100
AcDbEntity
  8
Visible (ISO)
100
AcDbEllipse
 10
4014.397650548963
 20
7863.720145361241
 30
0.0
 11
5.000000000002048
 21
0.0000000000000046
 31
0.0
210
0.0
220
0.0
230
1.0
 40
0.577350269189626
 41
6.167909181208662
 42
6.283185307179566
  0
LINE
  5
632E
330
1A
100
AcDbEntity
  8
Visible (ISO)
100
AcDbLine
 10
4018.579607311418
 20
7859.474641295223
 30
0.0
 11
4019.364465858479
 21
7863.388108374762
 31
0.0
  0
LINE
  5
632F
330
1A
100
AcDbEntity
  8
Visible (ISO)
100
AcDbLine
 10
4035.411231963307
 20
7849.026809725422
 30
0.0
 11
4036.709028412466
 21
7851.649300677886
 31
0.0
  0
LINE
  5
6330
330
1A
100
AcDbEntity
  8
Visible (ISO)
100
AcDbLine
 10
4036.709028412466
 20
7856.54828016345
 30
0.0
 11
4035.411231963307
 21
7853.925789210989
 31
0.0
  0
LINE
  5
6331
330
1A
100
AcDbEntity
  8
Visible (ISO)
100
AcDbLine
 10
4030.355180119514
 20
7860.426661579811
 30
0.0
 11
4036.581819829232
 21
7856.831709467257
 31
0.0
  0
LINE
  5
6332
330
1A
100
AcDbEntity
  8
Visible (ISO)
100
AcDbLine
 10
4013.60084944067
 20
7843.563640027181
 30
0.0
 11
4007.374209730953
 21
7847.158592139736
 31
0.0
  0
LINE
  5
6333
330
1A
100
AcDbEntity
  8
Visible (ISO)
100
AcDbLine
 10
3931.607718126814
 20
7891.923017189097
 30
0.0
 11
3952.82092156241
 21
7904.170465903014
 31
0.0
  0
ELLIPSE
  5
6334
330
1A
100
AcDbEntity
  8
Visible (ISO)
100
AcDbEllipse
 10
3956.356455468343
 20
7902.129224450695
 30
0.0
 11
4.99999999999999
 21
-0.0000000000002942
 31
0.0
210
0.0
220
0.0
230
1.0
 40
0.577350269189626
 41
0.7853981633976837
 42
2.356194490192644
  0
LINE
  5
6335
330
1A
100
AcDbEntity
  8
Visible (ISO)
100
AcDbLine
 10
3959.891989374273
 20
7904.170465903014
 30
0.0
 11
4017.933184454896
 21
7870.660366299128
 31
0.0
  0
ELLIPSE
  5
6336
330
1A
100
AcDbEntity
  8
Visible (ISO)
100
AcDbEllipse
 10
4014.397650548963
 20
7868.619124846809
 30
0.0
 11
5.000000000000021
 21
0.0000000000000047
 31
0.0
210
0.0
220
0.0
230
1.0
 40
0.5773502691896261
 41
6.167909181208639
 42
7.068583470577036
  0
LINE
  5
6337
330
1A
100
AcDbEntity
  8
Visible (ISO)
100
AcDbLine
 10
4019.364465858479
 20
7868.28708786033
 30
0.0
 11
4017.864796651911
 21
7860.809426959393
 31
0.0
  0
ELLIPSE
  5
6338
330
1A
100
AcDbEntity
  8
Visible (ISO)
100
AcDbEllipse
 10
4020.844885837619
 20
7860.610204767505
 30
0.0
 11
-3.0
 21
-0.0000000000000029
 31
0.0
210
0.0
220
0.0
230
1.0
 40
0.577350269189626
 41
6.167909181208632
 42
7.068583470577025
  0
LINE
  5
6339
330
1A
100
AcDbEntity
  8
Visible (ISO)
100
AcDbLine
 10
4018.723565494061
 20
7859.385459896113
 30
0.0
 11
4022.223452135871
 21
7857.364799401331
 31
0.0
  0
ELLIPSE
  5
633A
330
1A
100
AcDbEntity
  8
Visible (ISO)
100
AcDbEllipse
 10
4023.637665698241
 20
7858.18129598226
 30
0.0
 11
1.999999999999965
 21
0.0000000000001212
 31
0.0
210
0.0
220
0.0
230
1.0
 40
0.577350269189626
 41
3.926990816986982
 42
5.497787143781954
  0
LINE
  5
633B
330
1A
100
AcDbEntity
  8
Visible (ISO)
100
AcDbLine
 10
4025.051879260614
 20
7857.364799401331
 30
0.0
 11
4025.228655955912
 21
7857.466861473948
 31
0.0
  0
LINE
  5
633C
330
1A
100
AcDbEntity
  8
Visible (ISO)
100
AcDbLine
 10
4025.228655955912
 20
7857.466861473948
 30
0.0
 11
4027.99389217674
 21
7860.24570827571
 31
0.0
  0
ELLIPSE
  5
633D
330
1A
100
AcDbEntity
  8
Visible (ISO)
100
AcDbEllipse
 10
4029.294519947733
 20
7859.814289144115
 30
0.0
 11
1.499999999999973
 21
-0.0000000000000879
 31
0.0
210
0.0
220
0.0
230
1.0
 40
0.577350269189626
 41
0.7853981633977405
 42
2.620117338322568
  0
LINE
  5
633E
330
1A
100
AcDbEntity
  8
Visible (ISO)
100
AcDbLine
 10
4018.634050967268
 20
7844.239479246685
 30
0.0
 11
4014.091763395214
 21
7843.490196117411
 31
0.0
  0
ELLIPSE
  5
633F
330
1A
100
AcDbEntity
  8
Visible (ISO)
100
AcDbEllipse
 10
4008.434869902731
 20
7847.770964575431
 30
0.0
 11
-1.499999999999991
 21
-0.0000000000000014
 31
0.0
210
0.0
220
0.0
230
1.0
 40
0.577350269189626
 41
5.23386429565228
 42
7.06858347057703
  0
LINE
  5
6340
330
1A
100
AcDbEntity
  8
Visible (ISO)
100
AcDbLine
 10
4007.687630047448
 20
7848.52188236913
 30
0.0
 11
4012.500733894552
 21
7850.118392245597
 31
0.0
  0
LINE
  5
6341
330
1A
100
AcDbEntity
  8
Visible (ISO)
100
AcDbLine
 10
4012.500733894552
 20
7850.118392245597
 30
0.0
 11
4012.67751058985
 21
7850.220454318217
 31
0.0
  0
ELLIPSE
  5
6342
330
1A
100
AcDbEntity
  8
Visible (ISO)
100
AcDbEllipse
 10
4011.263297027476
 20
7851.036950899142
 30
0.0
 11
1.999999999999956
 21
0.0000000000000019
 31
0.0
210
0.0
220
0.0
230
1.0
 40
0.577350269189626
 41
5.497787143782074
 42
7.068583470577043
  0
LINE
  5
6343
330
1A
100
AcDbEntity
  8
Visible (ISO)
100
AcDbLine
 10
4012.67751058985
 20
7851.853447480071
 30
0.0
 11
4009.17762394804
 21
7853.874107974853
 31
0.0
  0
ELLIPSE
  5
6344
330
1A
100
AcDbEntity
  8
Visible (ISO)
100
AcDbEllipse
 10
4007.056303604481
 20
7852.649363103459
 30
0.0
 11
-2.999999999999935
 21
-0.0000000000001822
 31
0.0
210
0.0
220
0.0
230
1.0
 40
0.577350269189626
 41
3.926990816987006
 42
4.827665106355543
  0
LINE
  5
6345
330
1A
100
AcDbEntity
  8
Visible (ISO)
100
AcDbLine
 10
4006.711240646136
 20
7854.369918397039
 30
0.0
 11
3993.759552043945
 21
7853.504083976929
 31
0.0
  0
ELLIPSE
  5
6346
330
1A
100
AcDbEntity
  8
Visible (ISO)
100
AcDbEllipse
 10
3993.184447113368
 20
7856.371676132893
 30
0.0
 11
-5.000000000000006
 21
-0.0000000000000046
 31
0.0
210
0.0
220
0.0
230
1.0
 40
0.577350269189626
 41
0.7853981633974457
 42
1.686072452765843
  0
LINE
  5
6347
330
1A
100
AcDbEntity
  8
Visible (ISO)
100
AcDbLine
 10
3989.648913207437
 20
7854.330434680574
 30
0.0
 11
3931.607718126814
 21
7887.840534284459
 31
0.0
  0
ELLIPSE
  5
6348
330
1A
100
AcDbEntity
  8
Visible (ISO)
100
AcDbEllipse
 10
3935.143252032746
 20
7889.881775736779
 30
0.0
 11
-5.000000000000006
 21
-0.0000000000000042
 31
0.0
210
0.0
220
0.0
230
1.0
 40
0.577350269189626
 41
5.49778714378208
 42
7.068583470577037
  0
LINE
  5
6349
330
1A
100
AcDbEntity
  8
Visible (ISO)
100
AcDbLine
 10
4019.397650548964
 20
7863.720145361241
 30
0.0
 11
4019.397650548964
 21
7868.619124846809
 31
0.0
  0
LINE
  5
634A
330
1A
100
AcDbEntity
  8
Visible (ISO)
100
AcDbLine
 10
4006.934869902731
 20
7842.871985089866
 30
0.0
 11
4006.934869902731
 21
7847.770964575431
 31
0.0
  0
LINE
  5
634B
330
1A
100
AcDbEntity
  8
Visible (ISO)
100
AcDbLine
 10
3930.143252032745
 20
7884.982796251212
 30
0.0
 11
3930.143252032745
 21
7889.881775736779
 31
0.0
  0
ELLIPSE
  5
634C
330
1A
100
AcDbEntity
  8
Visible (ISO)
100
AcDbEllipse
 10
3983.454994607225
 20
6837.524518865987
 30
0.0
 11
-7.0
 21
-0.0000000000004208
 31
0.0
210
0.0
220
0.0
230
1.0
 40
0.577350269189626
 41
4.082549446436115
 42
5.342228514332956
  0
ELLIPSE
  5
634D
330
1A
100
AcDbEntity
  8
Visible (ISO)
100
AcDbEllipse
 10
3983.454994607225
 20
6844.056491513409
 30
0.0
 11
7.0
 21
0.0000000000000036
 31
0.0
210
0.0
220
0.0
230
1.0
 40
0.577350269189626
 41
0.0
 42
6.283185307179584
  0
ELLIPSE
  5
634E
330
1A
100
AcDbEntity
  8
Visible (ISO)
100
AcDbEllipse
 10
3962.241791171628
 20
6849.771967579903
 30
0.0
 11
-7.0
 21
-0.0000000000004208
 31
0.0
210
0.0
220
0.0
230
1.0
 40
0.577350269189626
 41
4.082549446436115
 42
5.342228514332956
  0
ELLIPSE
  5
634F
330
1A
100
AcDbEntity
  8
Visible (ISO)
100
AcDbEllipse
 10
3962.241791171628
 20
6856.303940227324
 30
0.0
 11
7.0
 21
0.0000000000000036
 31
0.0
210
0.0
220
0.0
230
1.0
 40
0.577350269189626
 41
0.0
 42
6.283185307179584
  0
ELLIPSE
  5
6350
330
1A
100
AcDbEntity
  8
Visible (ISO)
100
AcDbEllipse
 10
3941.028587736028
 20
6862.01941629382
 30
0.0
 11
-7.0
 21
-0.0000000000004205
 31
0.0
210
0.0
220
0.0
230
1.0
 40
0.5773502691896257
 41
4.082549446436111
 42
5.342228514332955
  0
ELLIPSE
  5
6351
330
1A
100
AcDbEntity
  8
Visible (ISO)
100
AcDbEllipse
 10
3941.028587736028
 20
6868.551388941241
 30
0.0
 11
7.0
 21
0.0000000000000036
 31
0.0
210
0.0
220
0.0
230
1.0
 40
0.577350269189626
 41
0.0
 42
6.283185307179584
  0
ELLIPSE
  5
6352
330
1A
100
AcDbEntity
  8
Visible (ISO)
100
AcDbEllipse
 10
3941.028587736028
 20
6880.798837655156
 30
0.0
 11
5.0
 21
-0.0000000000002964
 31
0.0
210
0.0
220
0.0
230
1.0
 40
0.577350269189626
 41
0.7853981633976961
 42
2.356194490192645
  0
LINE
  5
6353
330
1A
100
AcDbEntity
  8
Visible (ISO)
100
AcDbLine
 10
3944.564121641962
 20
6882.840079107477
 30
0.0
 11
4036.192888828946
 21
6829.938185706557
 31
0.0
  0
ELLIPSE
  5
6354
330
1A
100
AcDbEntity
  8
Visible (ISO)
100
AcDbEllipse
 10
4032.657374549907
 20
6827.896955585832
 30
0.0
 11
4.999972243375848
 21
0.0000000000000019
 31
0.0
210
0.0
220
0.0
230
1.0
 40
0.577350269189626
 41
6.167909181208584
 42
7.068583470577043
  0
ELLIPSE
  5
6355
330
1A
100
AcDbEntity
  8
Visible (ISO)
100
AcDbEllipse
 10
4032.657374549906
 20
6821.364982938411
 30
0.0
 11
4.999972243377191
 21
-0.0000000000000616
 31
0.0
210
0.0
220
0.0
230
1.0
 40
0.577350269189626
 41
6.167909181208702
 42
6.283185307179682
  0
LINE
  5
6356
330
1A
100
AcDbEntity
  8
Visible (ISO)
100
AcDbLine
 10
4037.624162287015
 20
6827.564920442596
 30
0.0
 11
4036.124501405597
 21
6820.087301052585
 31
0.0
  0
LINE
  5
6357
330
1A
100
AcDbEntity
  8
Visible (ISO)
100
AcDbLine
 10
4037.624162287015
 20
6821.032947795176
 30
0.0
 11
4037.131738505595
 21
6818.577620953168
 31
0.0
  0
ELLIPSE
  5
6358
330
1A
100
AcDbEntity
  8
Visible (ISO)
100
AcDbEllipse
 10
4039.104574047867
 20
6819.888079966644
 30
0.0
 11
-2.999983346026337
 21
-0.0000000000000013
 31
0.0
210
0.0
220
0.0
230
1.0
 40
0.5773502691896255
 41
6.167909181208726
 42
7.068583470577076
  0
LINE
  5
6359
330
1A
100
AcDbEntity
  8
Visible (ISO)
100
AcDbLine
 10
4036.983265480443
 20
6818.663341894209
 30
0.0
 11
4040.483132693249
 21
6816.64269261677
 31
0.0
  0
ELLIPSE
  5
635A
330
1A
100
AcDbEntity
  8
Visible (ISO)
100
AcDbEllipse
 10
4041.897338404861
 20
6817.45918466506
 30
0.0
 11
1.999988897350599
 21
0.00000000000012
 31
0.0
210
0.0
220
0.0
230
1.0
 40
0.577350269189626
 41
3.92699081698697
 42
5.497787143781898
  0
LINE
  5
635B
330
1A
100
AcDbEntity
  8
Visible (ISO)
100
AcDbLine
 10
4043.311544116476
 20
6816.64269261677
 30
0.0
 11
4043.488319830429
 21
6816.744754122805
 31
0.0
  0
LINE
  5
635C
330
1A
100
AcDbEntity
  8
Visible (ISO)
100
AcDbLine
 10
4043.488319830429
 20
6816.744754122805
 30
0.0
 11
4046.253540700532
 21
6819.52358549829
 31
0.0
  0
ELLIPSE
  5
635D
330
1A
100
AcDbEntity
  8
Visible (ISO)
100
AcDbEllipse
 10
4047.554161251317
 20
6819.092168761639
 30
0.0
 11
1.499991673012829
 21
-0.0000000000000888
 31
0.0
210
0.0
220
0.0
230
1.0
 40
0.577350269189626
 41
2.356194490190681
 42
2.620117338320643
  0
LINE
  5
635E
330
1A
100
AcDbEntity
  8
Visible (ISO)
100
AcDbLine
 10
4046.49350696761
 20
6819.704537797858
 30
0.0
 11
4046.526074664202
 21
6819.723340766255
 31
0.0
  0
ELLIPSE
  5
635F
330
1A
100
AcDbEntity
  8
Visible (ISO)
100
AcDbEllipse
 10
4047.233177520012
 20
6819.315094742112
 30
0.0
 11
0.9999944486753518
 21
-0.0000000000000593
 31
0.0
210
0.0
220
0.0
230
1.0
 40
0.577350269189626
 41
0.8325330372112409
 42
2.356194490192489
  0
LINE
  5
6360
330
1A
100
AcDbEntity
  8
Visible (ISO)
100
AcDbLine
 10
4047.906178173302
 20
6819.742122851277
 30
0.0
 11
4054.590447399505
 21
6816.230630704019
 31
0.0
  0
ELLIPSE
  5
6361
330
1A
100
AcDbEntity
  8
Visible (ISO)
100
AcDbEllipse
 10
4053.917446746216
 20
6815.803602594853
 30
0.0
 11
0.9999944486758426
 21
0.0000000000000005
 31
0.0
210
0.0
220
0.0
230
1.0
 40
0.577350269189626
 41
6.00488564817428
 42
7.115718344390704
  0
ELLIPSE
  5
6362
330
1A
100
AcDbEntity
  8
Visible (ISO)
100
AcDbEllipse
 10
4053.917446746216
 20
6809.271629947429
 30
0.0
 11
0.9999944486768516
 21
-0.000000000000055
 31
0.0
210
0.0
220
0.0
230
1.0
 40
0.577350269189626
 41
6.004885648174949
 42
6.283185307179962
  0
LINE
  5
6363
330
1A
100
AcDbEntity
  8
Visible (ISO)
100
AcDbLine
 10
4054.878965356127
 20
6815.644993158206
 30
0.0
 11
4053.670839311036
 21
6813.20370151749
 31
0.0
  0
LINE
  5
6364
330
1A
100
AcDbEntity
  8
Visible (ISO)
100
AcDbLine
 10
4054.878965356127
 20
6809.113020510785
 30
0.0
 11
4053.670839311036
 21
6806.671728870067
 31
0.0
  0
ELLIPSE
  5
6365
330
1A
100
AcDbEntity
  8
Visible (ISO)
100
AcDbEllipse
 10
4053.190080006085
 20
6813.283006235812
 30
0.0
 11
0.4999972243370387
 21
0.0000000000000003
 31
0.0
210
0.0
220
0.0
230
1.0
 40
0.577350269189626
 41
5.497787143780918
 42
6.004885648173632
  0
ELLIPSE
  5
6366
330
1A
100
AcDbEntity
  8
Visible (ISO)
100
AcDbEllipse
 10
4053.190080006085
 20
6806.75103358839
 30
0.0
 11
0.4999972243370044
 21
0.0000000000000002
 31
0.0
210
0.0
220
0.0
230
1.0
 40
0.577350269189626
 41
5.497787143780962
 42
6.004885648173692
  0
LINE
  5
6367
330
1A
100
AcDbEntity
  8
Visible (ISO)
100
AcDbLine
 10
4053.543631433984
 20
6813.07888322374
 30
0.0
 11
4037.109786061892
 21
6803.590798174345
 31
0.0
  0
LINE
  5
6368
330
1A
100
AcDbEntity
  8
Visible (ISO)
100
AcDbLine
 10
4053.543631433984
 20
6806.54691057632
 30
0.0
 11
4037.109786061892
 21
6797.058825526922
 31
0.0
  0
ELLIPSE
  5
6369
330
1A
100
AcDbEntity
  8
Visible (ISO)
100
AcDbEllipse
 10
4036.756234633993
 20
6803.794921186415
 30
0.0
 11
-0.4999972243370367
 21
0.0000000000000296
 31
0.0
210
0.0
220
0.0
230
1.0
 40
0.577350269189626
 41
1.84909598579972
 42
2.356194490192555
  0
ELLIPSE
  5
636A
330
1A
100
AcDbEntity
  8
Visible (ISO)
100
AcDbEllipse
 10
4036.756234633993
 20
6797.262948538993
 30
0.0
 11
-0.4999972243370367
 21
0.0000000000000296
 31
0.0
210
0.0
220
0.0
230
1.0
 40
0.577350269189626
 41
1.84909598579972
 42
2.356194490192555
  0
LINE
  5
636B
330
1A
100
AcDbEntity
  8
Visible (ISO)
100
AcDbLine
 10
4036.893594435407
 20
6803.517354672286
 30
0.0
 11
4032.665153277593
 21
6802.819842774937
 31
0.0
  0
LINE
  5
636C
330
1A
100
AcDbEntity
  8
Visible (ISO)
100
AcDbLine
 10
4036.893594435407
 20
6796.985382024863
 30
0.0
 11
4032.665153277593
 21
6796.287870127513
 31
0.0
  0
ELLIPSE
  5
636D
330
1A
100
AcDbEntity
  8
Visible (ISO)
100
AcDbEllipse
 10
4032.39043367476
 20
6803.374975803198
 30
0.0
 11
-0.999994448675886
 21
-0.0000000000000003
 31
0.0
210
0.0
220
0.0
230
1.0
 40
0.577350269189626
 41
0.7382632895837356
 42
1.849095985799874
  0
ELLIPSE
  5
636E
330
1A
100
AcDbEntity
  8
Visible (ISO)
100
AcDbEllipse
 10
4032.39043367476
 20
6796.843003155777
 30
0.0
 11
-0.9999944486758892
 21
-0.0000000000000005
 31
0.0
210
0.0
220
0.0
230
1.0
 40
0.577350269189626
 41
0.7382632895837356
 42
1.849095985799866
  0
LINE
  5
636F
330
1A
100
AcDbEntity
  8
Visible (ISO)
100
AcDbLine
 10
4031.650799293422
 20
6802.986418694858
 30
0.0
 11
4025.568716483991
 21
6806.845583331941
 31
0.0
  0
LINE
  5
6370
330
1A
100
AcDbEntity
  8
Visible (ISO)
100
AcDbLine
 10
4031.650799293422
 20
6796.454446047436
 30
0.0
 11
4025.568716483991
 21
6800.313610684522
 31
0.0
  0
ELLIPSE
  5
6371
330
1A
100
AcDbEntity
  8
Visible (ISO)
100
AcDbEllipse
 10
4026.308350865329
 20
6807.234140440283
 30
0.0
 11
-0.9999944486753124
 21
-0.0000000000000006
 31
0.0
210
0.0
220
0.0
230
1.0
 40
0.577350269189626
 41
5.497787143782268
 42
7.021448596763542
  0
ELLIPSE
  5
6372
330
1A
100
AcDbEntity
  8
Visible (ISO)
100
AcDbEllipse
 10
4026.308350865329
 20
6800.702167792862
 30
0.0
 11
-0.9999944486752095
 21
-0.0000000000000005
 31
0.0
210
0.0
220
0.0
230
1.0
 40
0.577350269189626
 41
0.0
 42
0.7382632895839834
  0
LINE
  5
6373
330
1A
100
AcDbEntity
  8
Visible (ISO)
100
AcDbLine
 10
4025.601248009524
 20
6807.642386464428
 30
0.0
 11
4025.633815706121
 21
6807.661189432827
 31
0.0
  0
ELLIPSE
  5
6374
330
1A
100
AcDbEntity
  8
Visible (ISO)
100
AcDbEllipse
 10
4026.694469989832
 20
6807.048820396609
 30
0.0
 11
1.499991673012868
 21
-0.000000000000089
 31
0.0
210
0.0
220
0.0
230
1.0
 40
0.577350269189626
 41
2.092271642064504
 42
2.356194490194384
  0
LINE
  5
6375
330
1A
100
AcDbEntity
  8
Visible (ISO)
100
AcDbLine
 10
4025.947234282723
 20
6807.79973402172
 30
0.0
 11
4030.760311410721
 21
6809.396235035442
 31
0.0
  0
LINE
  5
6376
330
1A
100
AcDbEntity
  8
Visible (ISO)
100
AcDbLine
 10
4030.760311410721
 20
6809.396235035442
 30
0.0
 11
4030.937087124674
 21
6809.498296541478
 31
0.0
  0
ELLIPSE
  5
6377
330
1A
100
AcDbEntity
  8
Visible (ISO)
100
AcDbEllipse
 10
4029.522881413062
 20
6810.314788589767
 30
0.0
 11
1.999988897349389
 21
0.0000000000000007
 31
0.0
210
0.0
220
0.0
230
1.0
 40
0.577350269189626
 41
5.497787143782831
 42
7.068583470577587
  0
LINE
  5
6378
330
1A
100
AcDbEntity
  8
Visible (ISO)
100
AcDbLine
 10
4030.937087124674
 20
6811.131280638058
 30
0.0
 11
4027.437219911869
 21
6813.151929915497
 31
0.0
  0
ELLIPSE
  5
6379
330
1A
100
AcDbEntity
  8
Visible (ISO)
100
AcDbEllipse
 10
4025.315911344451
 20
6811.927191843063
 30
0.0
 11
-2.999983346026285
 21
-0.0000000000001803
 31
0.0
210
0.0
220
0.0
230
1.0
 40
0.577350269189626
 41
3.926990816986887
 42
4.827665106355341
  0
ELLIPSE
  5
637A
330
1A
100
AcDbEntity
  8
Visible (ISO)
100
AcDbEllipse
 10
4025.315911344451
 20
6805.395219195635
 30
0.0
 11
-2.999983346032705
 21
-0.0000000000000011
 31
0.0
210
0.0
220
0.0
230
1.0
 40
0.577350269189626
 41
4.714907306291226
 42
4.827665106355325
  0
LINE
  5
637B
330
1A
100
AcDbEntity
  8
Visible (ISO)
100
AcDbLine
 10
4024.970850301661
 20
6813.647737585279
 30
0.0
 11
4012.0192335985
 21
6812.7819079717
 31
0.0
  0
LINE
  5
637C
330
1A
100
AcDbEntity
  8
Visible (ISO)
100
AcDbLine
 10
4024.970850301661
 20
6807.115764937858
 30
0.0
 11
4012.0192335985
 21
6806.249935324277
 31
0.0
  0
ELLIPSE
  5
637D
330
1A
100
AcDbEntity
  8
Visible (ISO)
100
AcDbEllipse
 10
4011.444131860518
 20
6815.649484208726
 30
0.0
 11
-4.999972243375808
 21
-0.0000000000000019
 31
0.0
210
0.0
220
0.0
230
1.0
 40
0.577350269189626
 41
0.785398163397452
 42
1.686072452765974
  0
ELLIPSE
  5
637E
330
1A
100
AcDbEntity
  8
Visible (ISO)
100
AcDbEllipse
 10
4011.444131860518
 20
6809.117511561304
 30
0.0
 11
-4.999972243375808
 21
-0.0000000000000019
 31
0.0
210
0.0
220
0.0
230
1.0
 40
0.577350269189626
 41
0.785398163397452
 42
1.686072452765974
  0
LINE
  5
637F
330
1A
100
AcDbEntity
  8
Visible (ISO)
100
AcDbLine
 10
4007.908617581483
 20
6813.608254088001
 30
0.0
 11
3916.2798503945
 21
6866.510147488921
 31
0.0
  0
LINE
  5
6380
330
1A
100
AcDbEntity
  8
Visible (ISO)
100
AcDbLine
 10
4007.908617581483
 20
6807.076281440581
 30
0.0
 11
3916.2798503945
 21
6859.9781748415
 31
0.0
  0
ELLIPSE
  5
6381
330
1A
100
AcDbEntity
  8
Visible (ISO)
100
AcDbEllipse
 10
3919.815384300431
 20
6868.551388941241
 30
0.0
 11
-5.0
 21
-0.0000000000000019
 31
0.0
210
0.0
220
0.0
230
1.0
 40
0.577350269189626
 41
5.497787143782089
 42
7.068583470577037
  0
ELLIPSE
  5
6382
330
1A
100
AcDbEntity
  8
Visible (ISO)
100
AcDbEllipse
 10
3919.815384300431
 20
6862.01941629382
 30
0.0
 11
-4.99999999999998
 21
-0.0000000000000019
 31
0.0
210
0.0
220
0.0
230
1.0
 40
0.577350269189626
 41
0.0
 42
0.7853981633974449
  0
LINE
  5
6383
330
1A
100
AcDbEntity
  8
Visible (ISO)
100
AcDbLine
 10
3916.2798503945
 20
6870.592630393559
 30
0.0
 11
3937.493053830096
 21
6882.840079107477
 31
0.0
  0
LINE
  5
6384
330
1A
100
AcDbEntity
  8
Visible (ISO)
100
AcDbLine
 10
4037.657346793285
 20
6821.364982938411
 30
0.0
 11
4037.657346793285
 21
6827.896955585832
 31
0.0
  0
LINE
  5
6385
330
1A
100
AcDbEntity
  8
Visible (ISO)
100
AcDbLine
 10
4054.917441194893
 20
6809.271629947429
 30
0.0
 11
4054.917441194893
 21
6815.803602594853
 31
0.0
  0
LINE
  5
6386
330
1A
100
AcDbEntity
  8
Visible (ISO)
100
AcDbLine
 10
4025.308356416654
 20
6800.702167792862
 30
0.0
 11
4025.308356416654
 21
6807.234140440283
 31
0.0
  0
LINE
  5
6387
330
1A
100
AcDbEntity
  8
Visible (ISO)
100
AcDbLine
 10
3914.815384300431
 20
6862.01941629382
 30
0.0
 11
3914.815384300431
 21
6868.551388941241
 31
0.0
  0
ELLIPSE
  5
6388
330
1A
100
AcDbEntity
  8
Visible (ISO)
100
AcDbEllipse
 10
3947.361608272347
 20
5710.996896233971
 30
0.0
 11
-6.999999999999996
 21
-0.0000000000004241
 31
0.0
210
0.0
220
0.0
230
1.0
 40
0.577350269189626
 41
3.792730112599666
 42
5.632047848169082
  0
ELLIPSE
  5
6389
330
1A
100
AcDbEntity
  8
Visible (ISO)
100
AcDbEllipse
 10
3947.361608272347
 20
5715.895875719539
 30
0.0
 11
7.0
 21
0.0000000000000072
 31
0.0
210
0.0
220
0.0
230
1.0
 40
0.577350269189626
 41
0.0
 42
6.283185307179584
  0
ELLIPSE
  5
638A
330
1A
100
AcDbEntity
  8
Visible (ISO)
100
AcDbEllipse
 10
3968.574811707951
 20
5698.749447520058
 30
0.0
 11
-6.999999999999996
 21
-0.0000000000004241
 31
0.0
210
0.0
220
0.0
230
1.0
 40
0.577350269189626
 41
3.792730112599661
 42
5.632047848169077
  0
ELLIPSE
  5
638B
330
1A
100
AcDbEntity
  8
Visible (ISO)
100
AcDbEllipse
 10
3968.574811707951
 20
5703.648427005624
 30
0.0
 11
7.0
 21
0.0000000000000072
 31
0.0
210
0.0
220
0.0
230
1.0
 40
0.577350269189626
 41
0.0
 42
6.283185307179584
  0
ELLIPSE
  5
638C
330
1A
100
AcDbEntity
  8
Visible (ISO)
100
AcDbEllipse
 10
3926.148404836759
 20
5723.24434494789
 30
0.0
 11
-7.0
 21
-0.0000000000004244
 31
0.0
210
0.0
220
0.0
230
1.0
 40
0.577350269189626
 41
3.792730112599673
 42
5.632047848169077
  0
ELLIPSE
  5
638D
330
1A
100
AcDbEntity
  8
Visible (ISO)
100
AcDbEllipse
 10
3926.148404836759
 20
5728.143324433457
 30
0.0
 11
7.0
 21
0.0000000000000072
 31
0.0
210
0.0
220
0.0
230
1.0
 40
0.577350269189626
 41
0.0
 42
6.283185307179584
  0
ELLIPSE
  5
638E
330
1A
100
AcDbEntity
  8
Visible (ISO)
100
AcDbEllipse
 10
4051.574696687929
 20
5646.240374001845
 30
0.0
 11
-0.4999999999993321
 21
0.0000000000000294
 31
0.0
210
0.0
220
0.0
230
1.0
 40
0.577350269189626
 41
1.849095985799726
 42
2.356194490192912
  0
ELLIPSE
  5
638F
330
1A
100
AcDbEntity
  8
Visible (ISO)
100
AcDbEllipse
 10
4051.574696687929
 20
5641.341394516279
 30
0.0
 11
0.4999999999993305
 21
0.0000000000000005
 31
0.0
210
0.0
220
0.0
230
1.0
 40
0.577350269189626
 41
4.990688639389446
 42
5.497787143782487
  0
ELLIPSE
  5
6390
330
1A
100
AcDbEntity
  8
Visible (ISO)
100
AcDbEllipse
 10
4047.032409115874
 20
5640.592111387006
 30
0.0
 11
0.5000000000000561
 21
0.0000000000000303
 31
0.0
210
0.0
220
0.0
230
1.0
 40
0.577350269189626
 41
3.926990816987082
 42
4.990688639389565
  0
ELLIPSE
  5
6391
330
1A
100
AcDbEntity
  8
Visible (ISO)
100
AcDbEllipse
 10
4069.306272723255
 20
5653.451932536619
 30
0.0
 11
0.4999999999966719
 21
0.0000000000000005
 31
0.0
210
0.0
220
0.0
230
1.0
 40
0.5773502691896261
 41
6.00488564817374
 42
6.283185307180692
  0
ELLIPSE
  5
6392
330
1A
100
AcDbEntity
  8
Visible (ISO)
100
AcDbEllipse
 10
4068.008476274097
 20
5650.829441584154
 30
0.0
 11
0.5000000000001493
 21
0.0000000000000005
 31
0.0
210
0.0
220
0.0
230
1.0
 40
0.577350269189626
 41
5.497787143782278
 42
6.004885648174587
  0
ELLIPSE
  5
6393
330
1A
100
AcDbEntity
  8
Visible (ISO)
100
AcDbEllipse
 10
4068.008476274097
 20
5655.728421069722
 30
0.0
 11
0.5000000000001476
 21
0.0000000000000005
 31
0.0
210
0.0
220
0.0
230
1.0
 40
0.577350269189626
 41
5.497787143782278
 42
6.004885648174587
  0
ELLIPSE
  5
6394
330
1A
100
AcDbEntity
  8
Visible (ISO)
100
AcDbEllipse
 10
4069.306272723255
 20
5658.350912022186
 30
0.0
 11
0.5000000000000561
 21
0.0000000000000005
 31
0.0
210
0.0
220
0.0
230
1.0
 40
0.577350269189626
 41
6.004885648174507
 42
7.068583470576903
  0
ELLIPSE
  5
6395
330
1A
100
AcDbEntity
  8
Visible (ISO)
100
AcDbEllipse
 10
4047.032409115874
 20
5645.491090872571
 30
0.0
 11
-0.5000000000000659
 21
-0.0000000000000005
 31
0.0
210
0.0
220
0.0
230
1.0
 40
0.577350269189626
 41
0.7853981633975488
 42
1.849095985799964
  0
LINE
  5
6396
330
1A
100
AcDbEntity
  8
Visible (ISO)
100
AcDbLine
 10
4069.806272723255
 20
5653.451932536619
 30
0.0
 11
4069.806272723255
 21
5658.350912022186
 31
0.0
  0
LINE
  5
6397
330
1A
100
AcDbEntity
  8
Visible (ISO)
100
AcDbLine
 10
4051.92825007852
 20
5641.137270371048
 30
0.0
 11
4068.362029664686
 21
5650.625317438922
 31
0.0
  0
LINE
  5
6398
330
1A
100
AcDbEntity
  8
Visible (ISO)
100
AcDbLine
 10
4068.362029664686
 20
5655.52429692449
 30
0.0
 11
4051.92825007852
 21
5646.036249856615
 31
0.0
  0
LINE
  5
6399
330
1A
100
AcDbEntity
  8
Visible (ISO)
100
AcDbLine
 10
4047.169769679825
 20
5640.314543332004
 30
0.0
 11
4051.712057251878
 21
5641.063826461279
 31
0.0
  0
LINE
  5
639A
330
1A
100
AcDbEntity
  8
Visible (ISO)
100
AcDbLine
 10
4040.452216015554
 20
5643.982939354327
 30
0.0
 11
4046.678855725279
 21
5640.387987241773
 31
0.0
  0
ELLIPSE
  5
639B
330
1A
100
AcDbEntity
  8
Visible (ISO)
100
AcDbEllipse
 10
4041.512876187336
 20
5644.595311790024
 30
0.0
 11
-1.499999999999879
 21
0.0000000000000216
 31
0.0
210
0.0
220
0.0
230
1.0
 40
0.577350269189626
 41
0.0000000000001191
 42
0.7853981633975639
  0
ELLIPSE
  5
639C
330
1A
100
AcDbEntity
  8
Visible (ISO)
100
AcDbEllipse
 10
4040.134309889088
 20
5649.473710318053
 30
0.0
 11
3.000000000000086
 21
0.0000000000000028
 31
0.0
210
0.0
220
0.0
230
1.0
 40
0.577350269189626
 41
0.806715132670142
 42
1.686072452765831
  0
LINE
  5
639D
330
1A
100
AcDbEntity
  8
Visible (ISO)
100
AcDbLine
 10
4026.83755832855
 20
5650.328431191523
 30
0.0
 11
4039.789246930743
 21
5651.194265611632
 31
0.0
  0
ELLIPSE
  5
639E
330
1A
100
AcDbEntity
  8
Visible (ISO)
100
AcDbEllipse
 10
4026.262453397978
 20
5653.196023347486
 30
0.0
 11
5.000000000000075
 21
0.0000000000003031
 31
0.0
210
0.0
220
0.0
230
1.0
 40
0.577350269189626
 41
3.926990816987002
 42
4.827665106355523
  0
LINE
  5
639F
330
1A
100
AcDbEntity
  8
Visible (ISO)
100
AcDbLine
 10
3901.399667495223
 20
5721.203103495566
 30
0.0
 11
4022.726919492042
 21
5651.154781895169
 31
0.0
  0
ELLIPSE
  5
63A0
330
1A
100
AcDbEntity
  8
Visible (ISO)
100
AcDbEllipse
 10
3904.935201401155
 20
5723.244344947887
 30
0.0
 11
-4.999999999999998
 21
-0.0000000000000044
 31
0.0
210
0.0
220
0.0
230
1.0
 40
0.577350269189626
 41
0.0
 42
0.7853981633974394
  0
ELLIPSE
  5
63A1
330
1A
100
AcDbEntity
  8
Visible (ISO)
100
AcDbEllipse
 10
4047.475656833578
 20
5665.443472061403
 30
0.0
 11
4.999999999997576
 21
0.0000000000000049
 31
0.0
210
0.0
220
0.0
230
1.0
 40
0.577350269189626
 41
6.167909181208621
 42
6.283185307179633
  0
LINE
  5
63A2
330
1A
100
AcDbEntity
  8
Visible (ISO)
100
AcDbLine
 10
4051.657613596029
 20
5661.197967995384
 30
0.0
 11
4052.44247214309
 21
5665.111435074924
 31
0.0
  0
LINE
  5
63A3
330
1A
100
AcDbEntity
  8
Visible (ISO)
100
AcDbLine
 10
4068.489238247916
 20
5650.750136425583
 30
0.0
 11
4069.787034697076
 21
5653.372627378047
 31
0.0
  0
LINE
  5
63A4
330
1A
100
AcDbEntity
  8
Visible (ISO)
100
AcDbLine
 10
4069.787034697076
 20
5658.271606863614
 30
0.0
 11
4068.489238247916
 21
5655.649115911149
 31
0.0
  0
LINE
  5
63A5
330
1A
100
AcDbEntity
  8
Visible (ISO)
100
AcDbLine
 10
4063.433186404124
 20
5662.149988279971
 30
0.0
 11
4069.659826113844
 21
5658.555036167419
 31
0.0
  0
LINE
  5
63A6
330
1A
100
AcDbEntity
  8
Visible (ISO)
100
AcDbLine
 10
4046.678855725279
 20
5645.28696672734
 30
0.0
 11
4040.452216015554
 21
5648.881918839895
 31
0.0
  0
LINE
  5
63A7
330
1A
100
AcDbEntity
  8
Visible (ISO)
100
AcDbLine
 10
3901.399667495223
 20
5730.184565885773
 30
0.0
 11
3922.612870930827
 21
5742.432014599692
 31
0.0
  0
ELLIPSE
  5
63A8
330
1A
100
AcDbEntity
  8
Visible (ISO)
100
AcDbEllipse
 10
3926.148404836759
 20
5740.390773147373
 30
0.0
 11
5.0
 21
-0.0000000000002937
 31
0.0
210
0.0
220
0.0
230
1.0
 40
0.5773502691896261
 41
0.7853981633976943
 42
2.356194490192645
  0
LINE
  5
63A9
330
1A
100
AcDbEntity
  8
Visible (ISO)
100
AcDbLine
 10
3929.68393874269
 20
5742.432014599692
 30
0.0
 11
4051.011190739504
 21
5672.383692999289
 31
0.0
  0
ELLIPSE
  5
63AA
330
1A
100
AcDbEntity
  8
Visible (ISO)
100
AcDbEllipse
 10
4047.475656833574
 20
5670.342451546972
 30
0.0
 11
5.000000000000047
 21
0.000000000000005
 31
0.0
210
0.0
220
0.0
230
0.9999999999999998
 40
0.577350269189626
 41
6.167909181208632
 42
7.068583470577032
  0
LINE
  5
63AB
330
1A
100
AcDbEntity
  8
Visible (ISO)
100
AcDbLine
 10
4052.44247214309
 20
5670.010414560491
 30
0.0
 11
4050.94280293652
 21
5662.532753659554
 31
0.0
  0
ELLIPSE
  5
63AC
330
1A
100
AcDbEntity
  8
Visible (ISO)
100
AcDbEllipse
 10
4053.922892122229
 20
5662.333531467667
 30
0.0
 11
-2.999999999999955
 21
-0.0000000000000029
 31
0.0
210
0.0
220
0.0
230
1.0
 40
0.577350269189626
 41
6.16790918120862
 42
7.068583470577012
  0
LINE
  5
63AD
330
1A
100
AcDbEntity
  8
Visible (ISO)
100
AcDbLine
 10
4051.80157177867
 20
5661.108786596276
 30
0.0
 11
4055.301458420481
 21
5659.088126101493
 31
0.0
  0
ELLIPSE
  5
63AE
330
1A
100
AcDbEntity
  8
Visible (ISO)
100
AcDbEllipse
 10
4056.715671982851
 20
5659.904622682422
 30
0.0
 11
2.000000000000035
 21
0.0000000000001214
 31
0.0
210
0.0
220
0.0
230
1.0
 40
0.577350269189626
 41
3.926990816987028
 42
5.497787143781933
  0
LINE
  5
63AF
330
1A
100
AcDbEntity
  8
Visible (ISO)
100
AcDbLine
 10
4058.129885545228
 20
5659.088126101493
 30
0.0
 11
4058.306662240521
 21
5659.190188174108
 31
0.0
  0
LINE
  5
63B0
330
1A
100
AcDbEntity
  8
Visible (ISO)
100
AcDbLine
 10
4058.306662240521
 20
5659.190188174108
 30
0.0
 11
4061.071898461348
 21
5661.969034975873
 31
0.0
  0
ELLIPSE
  5
63B1
330
1A
100
AcDbEntity
  8
Visible (ISO)
100
AcDbEllipse
 10
4062.372526232343
 20
5661.537615844277
 30
0.0
 11
1.500000000000026
 21
-0.0000000000000878
 31
0.0
210
0.0
220
0.0
230
1.0
 40
0.5773502691896261
 41
0.7853981633977593
 42
2.620117338322538
  0
LINE
  5
63B2
330
1A
100
AcDbEntity
  8
Visible (ISO)
100
AcDbLine
 10
4051.712057251878
 20
5645.962805946844
 30
0.0
 11
4047.169769679825
 21
5645.213522817571
 31
0.0
  0
ELLIPSE
  5
63B3
330
1A
100
AcDbEntity
  8
Visible (ISO)
100
AcDbEllipse
 10
4041.512876187336
 20
5649.49429127559
 30
0.0
 11
-1.500000000000019
 21
-0.0000000000000016
 31
0.0
210
0.0
220
0.0
230
1.0
 40
0.577350269189626
 41
5.233864295652311
 42
7.068583470577005
  0
LINE
  5
63B4
330
1A
100
AcDbEntity
  8
Visible (ISO)
100
AcDbLine
 10
4040.765636332058
 20
5650.245209069288
 30
0.0
 11
4045.578740179162
 21
5651.841718945758
 31
0.0
  0
LINE
  5
63B5
330
1A
100
AcDbEntity
  8
Visible (ISO)
100
AcDbLine
 10
4045.578740179162
 20
5651.841718945758
 30
0.0
 11
4045.755516874456
 21
5651.943781018374
 31
0.0
  0
ELLIPSE
  5
63B6
330
1A
100
AcDbEntity
  8
Visible (ISO)
100
AcDbEllipse
 10
4044.341303312083
 20
5652.760277599302
 30
0.0
 11
2.000000000000063
 21
0.0000000000000019
 31
0.0
210
0.0
220
0.0
230
1.0
 40
0.577350269189626
 41
5.497787143782106
 42
7.068583470577012
  0
LINE
  5
63B7
330
1A
100
AcDbEntity
  8
Visible (ISO)
100
AcDbLine
 10
4045.755516874456
 20
5653.57677418023
 30
0.0
 11
4042.25563023265
 21
5655.597434675011
 31
0.0
  0
ELLIPSE
  5
63B8
330
1A
100
AcDbEntity
  8
Visible (ISO)
100
AcDbEllipse
 10
4040.134309889088
 20
5654.372689803619
 30
0.0
 11
-3.000000000000102
 21
-0.0000000000001822
 31
0.0
210
0.0
220
0.0
230
1.0
 40
0.577350269189626
 41
3.926990816987022
 42
4.827665106355514
  0
LINE
  5
63B9
330
1A
100
AcDbEntity
  8
Visible (ISO)
100
AcDbLine
 10
4039.789246930743
 20
5656.093245097197
 30
0.0
 11
4026.83755832855
 21
5655.227410677087
 31
0.0
  0
ELLIPSE
  5
63BA
330
1A
100
AcDbEntity
  8
Visible (ISO)
100
AcDbEllipse
 10
4026.262453397978
 20
5658.095002833053
 30
0.0
 11
-5.000000000000082
 21
-0.0000000000000053
 31
0.0
210
0.0
220
0.0
230
1.0
 40
0.577350269189626
 41
0.7853981633974528
 42
1.686072452765839
  0
LINE
  5
63BB
330
1A
100
AcDbEntity
  8
Visible (ISO)
100
AcDbLine
 10
4022.726919492042
 20
5656.053761380734
 30
0.0
 11
3901.399667495223
 21
5726.102082981133
 31
0.0
  0
ELLIPSE
  5
63BC
330
1A
100
AcDbEntity
  8
Visible (ISO)
100
AcDbEllipse
 10
3904.935201401155
 20
5728.143324433453
 30
0.0
 11
-5.000000000000004
 21
-0.0000000000000056
 31
0.0
210
0.0
220
0.0
230
1.0
 40
0.577350269189626
 41
5.49778714378208
 42
7.068583470577032
  0
LINE
  5
63BD
330
1A
100
AcDbEntity
  8
Visible (ISO)
100
AcDbLine
 10
4052.475656833574
 20
5665.443472061403
 30
0.0
 11
4052.475656833574
 21
5670.342451546972
 31
0.0
  0
LINE
  5
63BE
330
1A
100
AcDbEntity
  8
Visible (ISO)
100
AcDbLine
 10
4040.012876187335
 20
5644.595311790024
 30
0.0
 11
4040.012876187335
 21
5649.49429127559
 31
0.0
  0
LINE
  5
63BF
330
1A
100
AcDbEntity
  8
Visible (ISO)
100
AcDbLine
 10
3899.935201401155
 20
5723.244344947887
 30
0.0
 11
3899.935201401155
 21
5728.143324433453
 31
0.0
  0
LINE
  5
63C0
330
1A
100
AcDbEntity
  8
Visible (ISO)
100
AcDbLine
 10
4595.853012285926
 20
4670.683784389426
 30
0.0
 11
4590.853012285925
 21
4670.683784389423
 31
0.0
  0
LINE
  5
63C1
330
1A
100
AcDbEntity
  8
Visible (ISO)
100
AcDbLine
 10
4560.853012285916
 20
4670.683784389423
 30
0.0
 11
4590.853012285925
 21
4670.683784389423
 31
0.0
  0
LINE
  5
63C2
330
1A
100
AcDbEntity
  8
Visible (ISO)
100
AcDbLine
 10
4560.853012285916
 20
4670.683784389423
 30
0.0
 11
4555.853012285914
 21
4670.683784389426
 31
0.0
  0
LINE
  5
63C3
330
1A
100
AcDbEntity
  8
Visible (ISO)
100
AcDbLine
 10
4590.853012285925
 20
4676.683784389424
 30
0.0
 11
4560.853012285916
 21
4676.683784389424
 31
0.0
  0
LINE
  5
63C4
330
1A
100
AcDbEntity
  8
Visible (ISO)
100
AcDbLine
 10
4555.853012285914
 20
4676.683784389426
 30
0.0
 11
4560.853012285916
 21
4676.683784389424
 31
0.0
  0
LINE
  5
63C5
330
1A
100
AcDbEntity
  8
Visible (ISO)
100
AcDbLine
 10
4555.853012285914
 20
4670.683784389426
 30
0.0
 11
4555.853012285914
 21
4676.683784389426
 31
0.0
  0
LINE
  5
63C6
330
1A
100
AcDbEntity
  8
Visible (ISO)
100
AcDbLine
 10
4595.853012285926
 20
4670.683784389426
 30
0.0
 11
4595.853012285926
 21
4676.683784389426
 31
0.0
  0
LINE
  5
63C7
330
1A
100
AcDbEntity
  8
Visible (ISO)
100
AcDbLine
 10
4590.853012285925
 20
4676.683784389424
 30
0.0
 11
4595.853012285926
 21
4676.683784389426
 31
0.0
  0
LINE
  5
63C8
330
1A
100
AcDbEntity
  8
Hidden (ISO)
100
AcDbLine
 10
4559.603012285914
 20
4670.683784389494
 30
0.0
 11
4559.603012285914
 21
4676.683784389494
 31
0.0
  0
LINE
  5
63C9
330
1A
100
AcDbEntity
  8
Hidden (ISO)
100
AcDbLine
 10
4592.103012285924
 20
4670.683784389494
 30
0.0
 11
4592.103012285924
 21
4676.683784389494
 31
0.0
  0
LINE
  5
63CA
330
1A
100
AcDbEntity
  8
Hidden (ISO)
100
AcDbLine
 10
4569.103012285913
 20
4670.683784389491
 30
0.0
 11
4569.103012285913
 21
4676.683784389491
 31
0.0
  0
LINE
  5
63CB
330
1A
100
AcDbEntity
  8
Hidden (ISO)
100
AcDbLine
 10
4566.853012285917
 20
4670.683784389494
 30
0.0
 11
4566.853012285917
 21
4676.683784389494
 31
0.0
  0
LINE
  5
63CC
330
1A
100
AcDbEntity
  8
Hidden (ISO)
100
AcDbLine
 10
4584.853012285925
 20
4670.683784389494
 30
0.0
 11
4584.853012285925
 21
4676.683784389494
 31
0.0
  0
LINE
  5
63CD
330
1A
100
AcDbEntity
  8
Hidden (ISO)
100
AcDbLine
 10
4582.603012285924
 20
4670.683784389491
 30
0.0
 11
4582.603012285924
 21
4676.683784389491
 31
0.0
  0
LINE
  5
63CE
330
1A
100
AcDbEntity
  8
Hidden (ISO)
100
AcDbLine
 10
4568.853012285914
 20
4670.683784389431
 30
0.0
 11
4568.853012285914
 21
4676.683784389431
 31
0.0
  0
LINE
  5
63CF
330
1A
100
AcDbEntity
  8
Hidden (ISO)
100
AcDbLine
 10
4582.853012285919
 20
4670.683784389431
 30
0.0
 11
4582.853012285919
 21
4676.683784389431
 31
0.0
  0
LINE
  5
63D0
330
1A
100
AcDbEntity
  8
Visible (ISO)
100
AcDbLine
 10
4604.008956590422
 20
5697.140492875757
 30
0.0
 11
4599.008956590422
 21
5697.140492875755
 31
0.0
  0
LINE
  5
63D1
330
1A
100
AcDbEntity
  8
Visible (ISO)
100
AcDbLine
 10
4569.008956590415
 20
5697.140492875755
 30
0.0
 11
4599.008956590422
 21
5697.140492875755
 31
0.0
  0
LINE
  5
63D2
330
1A
100
AcDbEntity
  8
Visible (ISO)
100
AcDbLine
 10
4569.008956590415
 20
5697.140492875755
 30
0.0
 11
4564.008956590416
 21
5697.140492875757
 31
0.0
  0
LINE
  5
63D3
330
1A
100
AcDbEntity
  8
Visible (ISO)
100
AcDbLine
 10
4599.008956590422
 20
5705.140492875755
 30
0.0
 11
4569.008956590415
 21
5705.140492875755
 31
0.0
  0
LINE
  5
63D4
330
1A
100
AcDbEntity
  8
Visible (ISO)
100
AcDbLine
 10
4564.008956590416
 20
5705.140492875756
 30
0.0
 11
4569.008956590415
 21
5705.140492875755
 31
0.0
  0
LINE
  5
63D5
330
1A
100
AcDbEntity
  8
Visible (ISO)
100
AcDbLine
 10
4564.008956590416
 20
5697.140492875757
 30
0.0
 11
4564.008956590411
 21
5705.140492875756
 31
0.0
  0
LINE
  5
63D6
330
1A
100
AcDbEntity
  8
Visible (ISO)
100
AcDbLine
 10
4604.008956590422
 20
5697.140492875757
 30
0.0
 11
4604.008956590422
 21
5705.140492875756
 31
0.0
  0
LINE
  5
63D7
330
1A
100
AcDbEntity
  8
Visible (ISO)
100
AcDbLine
 10
4599.008956590422
 20
5705.140492875755
 30
0.0
 11
4604.008956590422
 21
5705.140492875756
 31
0.0
  0
LINE
  5
63D8
330
1A
100
AcDbEntity
  8
Hidden (ISO)
100
AcDbLine
 10
4567.758956590416
 20
5697.140492875814
 30
0.0
 11
4567.758956590416
 21
5705.140492875755
 31
0.0
  0
LINE
  5
63D9
330
1A
100
AcDbEntity
  8
Hidden (ISO)
100
AcDbLine
 10
4600.258956590422
 20
5697.140492875814
 30
0.0
 11
4600.258956590422
 21
5705.140492875756
 31
0.0
  0
LINE
  5
63DA
330
1A
100
AcDbEntity
  8
Hidden (ISO)
100
AcDbLine
 10
4577.258956590415
 20
5697.140492875812
 30
0.0
 11
4577.258956590415
 21
5705.140492875755
 31
0.0
  0
LINE
  5
63DB
330
1A
100
AcDbEntity
  8
Hidden (ISO)
100
AcDbLine
 10
4575.008956590415
 20
5697.140492875814
 30
0.0
 11
4575.008956590415
 21
5705.140492875755
 31
0.0
  0
LINE
  5
63DC
330
1A
100
AcDbEntity
  8
Hidden (ISO)
100
AcDbLine
 10
4593.008956590422
 20
5697.140492875814
 30
0.0
 11
4593.008956590422
 21
5705.140492875755
 31
0.0
  0
LINE
  5
63DD
330
1A
100
AcDbEntity
  8
Hidden (ISO)
100
AcDbLine
 10
4590.758956590422
 20
5697.140492875812
 30
0.0
 11
4590.758956590418
 21
5705.140492875755
 31
0.0
  0
LINE
  5
63DE
330
1A
100
AcDbEntity
  8
Hidden (ISO)
100
AcDbLine
 10
4577.008956590414
 20
5697.14049287576
 30
0.0
 11
4577.008956590414
 21
5705.140492875755
 31
0.0
  0
LINE
  5
63DF
330
1A
100
AcDbEntity
  8
Hidden (ISO)
100
AcDbLine
 10
4591.008956590413
 20
5697.14049287576
 30
0.0
 11
4591.008956590413
 21
5705.140492875755
 31
0.0
  0
ELLIPSE
  5
63E0
330
1A
100
AcDbEntity
  8
Visible (ISO)
100
AcDbEllipse
 10
3977.670816914479
 20
4695.288207543875
 30
0.0
 11
7.0
 21
-0.0000000000000006
 31
0.0
210
0.0
220
0.0
230
1.0
 40
0.577350269189626
 41
0.0
 42
6.283185307179584
  0
ELLIPSE
  5
63E1
330
1A
100
AcDbEntity
  8
Visible (ISO)
100
AcDbEllipse
 10
3977.670816914479
 20
4690.389228058307
 30
0.0
 11
-7.0
 21
-0.0000000000004166
 31
0.0
210
0.0
220
0.0
230
1.0
 40
0.5773502691896261
 41
3.792730112599666
 42
5.632047848169086
  0
ELLIPSE
  5
63E2
330
1A
100
AcDbEntity
  8
Visible (ISO)
100
AcDbEllipse
 10
3956.457613478875
 20
4707.535656257788
 30
0.0
 11
7.0
 21
-0.0000000000000006
 31
0.0
210
0.0
220
0.0
230
1.0
 40
0.577350269189626
 41
0.0
 42
6.283185307179584
  0
ELLIPSE
  5
63E3
330
1A
100
AcDbEntity
  8
Visible (ISO)
100
AcDbEllipse
 10
3956.457613478875
 20
4702.636676772222
 30
0.0
 11
-6.999999999999997
 21
-0.000000000000418
 31
0.0
210
0.0
220
0.0
230
1.0
 40
0.5773502691896262
 41
3.792730112599666
 42
5.632047848169085
  0
ELLIPSE
  5
63E4
330
1A
100
AcDbEntity
  8
Visible (ISO)
100
AcDbEllipse
 10
3935.244410043286
 20
4719.783104971708
 30
0.0
 11
7.0
 21
-0.0000000000000006
 31
0.0
210
0.0
220
0.0
230
1.0
 40
0.577350269189626
 41
0.0
 42
6.283185307179584
  0
ELLIPSE
  5
63E5
330
1A
100
AcDbEntity
  8
Visible (ISO)
100
AcDbEllipse
 10
3935.244410043286
 20
4714.884125486141
 30
0.0
 11
-7.0
 21
-0.0000000000004172
 31
0.0
210
0.0
220
0.0
230
1.0
 40
0.577350269189626
 41
3.792730112599666
 42
5.632047848169086
  0
ELLIPSE
  5
63E6
330
1A
100
AcDbEntity
  8
Visible (ISO)
100
AcDbEllipse
 10
4084.005225673609
 20
4624.407960954789
 30
0.0
 11
-0.4999999999999007
 21
0.0000000000000299
 31
0.0
210
0.0
220
0.0
230
1.0
 40
0.5773502691896261
 41
1.849095985799985
 42
2.356194490192574
  0
ELLIPSE
  5
63E7
330
1A
100
AcDbEntity
  8
Visible (ISO)
100
AcDbEllipse
 10
4084.005225673609
 20
4619.508981469222
 30
0.0
 11
0.4999999999998999
 21
-0.0000000000000001
 31
0.0
210
0.0
220
0.0
230
1.0
 40
0.577350269189626
 41
4.990688639389706
 42
5.497787143782153
  0
ELLIPSE
  5
63E8
330
1A
100
AcDbEntity
  8
Visible (ISO)
100
AcDbEllipse
 10
4079.462938101555
 20
4618.759698339948
 30
0.0
 11
0.5000000000000493
 21
0.0000000000000298
 31
0.0
210
0.0
220
0.0
230
1.0
 40
0.577350269189626
 41
3.926990816987026
 42
4.990688639389565
  0
ELLIPSE
  5
63E9
330
1A
100
AcDbEntity
  8
Visible (ISO)
100
AcDbEllipse
 10
4101.73680170894
 20
4631.619519489563
 30
0.0
 11
0.4999999999966731
 21
0.0
 31
0.0
210
0.0
220
0.0
230
1.0
 40
0.577350269189626
 41
6.004885648173837
 42
6.283185307180755
  0
ELLIPSE
  5
63EA
330
1A
100
AcDbEntity
  8
Visible (ISO)
100
AcDbEllipse
 10
4100.439005259779
 20
4628.997028537098
 30
0.0
 11
0.5000000000000782
 21
0.0
 31
0.0
210
0.0
220
0.0
230
1.0
 40
0.577350269189626
 41
5.497787143782222
 42
6.00488564817457
  0
ELLIPSE
  5
63EB
330
1A
100
AcDbEntity
  8
Visible (ISO)
100
AcDbEllipse
 10
4100.439005259779
 20
4633.896008022666
 30
0.0
 11
0.500000000000079
 21
0.0
 31
0.0
210
0.0
220
0.0
230
1.0
 40
0.577350269189626
 41
5.497787143782222
 42
6.00488564817457
  0
ELLIPSE
  5
63EC
330
1A
100
AcDbEntity
  8
Visible (ISO)
100
AcDbEllipse
 10
4101.73680170894
 20
4636.51849897513
 30
0.0
 11
0.5000000000000493
 21
0.0
 31
0.0
210
0.0
220
0.0
230
1.0
 40
0.577350269189626
 41
6.004885648174511
 42
7.068583470576903
  0
ELLIPSE
  5
63ED
330
1A
100
AcDbEntity
  8
Visible (ISO)
100
AcDbEllipse
 10
4079.462938101555
 20
4623.658677825514
 30
0.0
 11
-0.500000000000065
 21
0.0
 31
0.0
210
0.0
220
0.0
230
1.0
 40
0.577350269189626
 41
0.7853981633973639
 42
1.849095985799829
  0
LINE
  5
63EE
330
1A
100
AcDbEntity
  8
Visible (ISO)
100
AcDbLine
 10
4102.236801708941
 20
4631.619519489563
 30
0.0
 11
4102.236801708941
 21
4636.51849897513
 31
0.0
  0
LINE
  5
63EF
330
1A
100
AcDbEntity
  8
Visible (ISO)
100
AcDbLine
 10
4084.358779064205
 20
4619.304857323991
 30
0.0
 11
4100.792558650371
 21
4628.792904391866
 31
0.0
  0
LINE
  5
63F0
330
1A
100
AcDbEntity
  8
Visible (ISO)
100
AcDbLine
 10
4100.792558650371
 20
4633.691883877435
 30
0.0
 11
4084.358779064205
 21
4624.203836809557
 31
0.0
  0
LINE
  5
63F1
330
1A
100
AcDbEntity
  8
Visible (ISO)
100
AcDbLine
 10
4079.600298665506
 20
4618.482130284947
 30
0.0
 11
4084.14258623756
 21
4619.231413414222
 31
0.0
  0
LINE
  5
63F2
330
1A
100
AcDbEntity
  8
Visible (ISO)
100
AcDbLine
 10
4072.882745001241
 20
4622.150526307271
 30
0.0
 11
4079.109384710958
 21
4618.555574194714
 31
0.0
  0
ELLIPSE
  5
63F3
330
1A
100
AcDbEntity
  8
Visible (ISO)
100
AcDbEllipse
 10
4073.943405173022
 20
4622.762898742967
 30
0.0
 11
-1.500000000000033
 21
-0.0000000000000364
 31
0.0
210
0.0
220
0.0
230
1.0
 40
0.577350269189626
 41
0.0
 42
0.7853981633972876
  0
ELLIPSE
  5
63F4
330
1A
100
AcDbEntity
  8
Visible (ISO)
100
AcDbEllipse
 10
4072.564838874771
 20
4627.641297270996
 30
0.0
 11
3.000000000000181
 21
-0.0000000000000003
 31
0.0
210
0.0
220
0.0
230
1.0
 40
0.577350269189626
 41
0.8067151326701702
 42
1.686072452765828
  0
LINE
  5
63F5
330
1A
100
AcDbEntity
  8
Visible (ISO)
100
AcDbLine
 10
4059.268087314232
 20
4628.496018144466
 30
0.0
 11
4072.219775916424
 21
4629.361852564572
 31
0.0
  0
ELLIPSE
  5
63F6
330
1A
100
AcDbEntity
  8
Visible (ISO)
100
AcDbEllipse
 10
4058.692982383655
 20
4631.363610300429
 30
0.0
 11
4.999999999999968
 21
0.0000000000002975
 31
0.0
210
0.0
220
0.0
230
1.0
 40
0.5773502691896262
 41
3.926990816987006
 42
4.827665106355543
  0
LINE
  5
63F7
330
1A
100
AcDbEntity
  8
Visible (ISO)
100
AcDbLine
 10
3910.495672701751
 20
4712.842884033817
 30
0.0
 11
4055.157448477724
 21
4629.322368848109
 31
0.0
  0
ELLIPSE
  5
63F8
330
1A
100
AcDbEntity
  8
Visible (ISO)
100
AcDbEllipse
 10
3914.031206607683
 20
4714.884125486138
 30
0.0
 11
-4.999999999999983
 21
0.0000000000000028
 31
0.0
210
0.0
220
0.0
230
1.0
 40
0.5773502691896261
 41
0.0000000000000025
 42
0.78539816339746
  0
ELLIPSE
  5
63F9
330
1A
100
AcDbEntity
  8
Visible (ISO)
100
AcDbEllipse
 10
4079.906185819257
 20
4643.611059014349
 30
0.0
 11
5.000000000005123
 21
-0.0000000000000003
 31
0.0
210
0.0
220
0.0
230
1.0
 40
0.577350269189626
 41
6.167909181208681
 42
6.283185307179517
  0
LINE
  5
63FA
330
1A
100
AcDbEntity
  8
Visible (ISO)
100
AcDbLine
 10
4084.088142581715
 20
4639.365554948329
 30
0.0
 11
4084.873001128776
 21
4643.279022027868
 31
0.0
  0
LINE
  5
63FB
330
1A
100
AcDbEntity
  8
Visible (ISO)
100
AcDbLine
 10
4100.919767233599
 20
4628.917723378527
 30
0.0
 11
4102.217563682762
 21
4631.540214330991
 31
0.0
  0
LINE
  5
63FC
330
1A
100
AcDbEntity
  8
Visible (ISO)
100
AcDbLine
 10
4102.217563682762
 20
4636.439193816558
 30
0.0
 11
4100.919767233599
 21
4633.816702864094
 31
0.0
  0
LINE
  5
63FD
330
1A
100
AcDbEntity
  8
Visible (ISO)
100
AcDbLine
 10
4095.86371538981
 20
4640.317575232915
 30
0.0
 11
4102.090355099529
 21
4636.722623120362
 31
0.0
  0
LINE
  5
63FE
330
1A
100
AcDbEntity
  8
Visible (ISO)
100
AcDbLine
 10
4079.109384710958
 20
4623.45455368028
 30
0.0
 11
4072.882745001241
 21
4627.049505792836
 31
0.0
  0
LINE
  5
63FF
330
1A
100
AcDbEntity
  8
Visible (ISO)
100
AcDbLine
 10
3910.495672701751
 20
4721.824346424023
 30
0.0
 11
3931.708876137355
 21
4734.071795137943
 31
0.0
  0
ELLIPSE
  5
6400
330
1A
100
AcDbEntity
  8
Visible (ISO)
100
AcDbEllipse
 10
3935.244410043286
 20
4732.030553685624
 30
0.0
 11
5.0
 21
-0.0000000000002981
 31
0.0
210
0.0
220
0.0
230
1.0
 40
0.577350269189626
 41
0.7853981633976668
 42
2.356194490192615
  0
LINE
  5
6401
330
1A
100
AcDbEntity
  8
Visible (ISO)
100
AcDbLine
 10
3938.779943949219
 20
4734.071795137943
 30
0.0
 11
4083.441719725191
 21
4650.551279952234
 31
0.0
  0
ELLIPSE
  5
6402
330
1A
100
AcDbEntity
  8
Visible (ISO)
100
AcDbEllipse
 10
4079.90618581926
 20
4648.510038499915
 30
0.0
 11
4.999999999999968
 21
-0.0000000000000003
 31
0.0
210
0.0
220
0.0
230
1.0
 40
0.577350269189626
 41
6.167909181208621
 42
7.068583470577022
  0
LINE
  5
6403
330
1A
100
AcDbEntity
  8
Visible (ISO)
100
AcDbLine
 10
4084.873001128776
 20
4648.178001513435
 30
0.0
 11
4083.373331922206
 21
4640.700340612498
 31
0.0
  0
ELLIPSE
  5
6404
330
1A
100
AcDbEntity
  8
Visible (ISO)
100
AcDbEllipse
 10
4086.353421107913
 20
4640.50111842061
 30
0.0
 11
-3.000000000000233
 21
0.0000000000000001
 31
0.0
210
0.0
220
0.0
230
1.0
 40
0.577350269189626
 41
6.167909181208666
 42
7.068583470577001
  0
LINE
  5
6405
330
1A
100
AcDbEntity
  8
Visible (ISO)
100
AcDbLine
 10
4084.232100764356
 20
4639.276373549221
 30
0.0
 11
4087.731987406167
 21
4637.255713054437
 31
0.0
  0
ELLIPSE
  5
6406
330
1A
100
AcDbEntity
  8
Visible (ISO)
100
AcDbEllipse
 10
4089.146200968535
 20
4638.072209635367
 30
0.0
 11
2.000000000000035
 21
0.0000000000001191
 31
0.0
210
0.0
220
0.0
230
1.0
 40
0.577350269189626
 41
3.926990816987018
 42
5.4977871437819
  0
LINE
  5
6407
330
1A
100
AcDbEntity
  8
Visible (ISO)
100
AcDbLine
 10
4090.56041453091
 20
4637.255713054437
 30
0.0
 11
4090.737191226204
 21
4637.357775127052
 31
0.0
  0
LINE
  5
6408
330
1A
100
AcDbEntity
  8
Visible (ISO)
100
AcDbLine
 10
4090.737191226204
 20
4637.357775127052
 30
0.0
 11
4093.502427447036
 21
4640.136621928817
 31
0.0
  0
ELLIPSE
  5
6409
330
1A
100
AcDbEntity
  8
Visible (ISO)
100
AcDbEllipse
 10
4094.803055218029
 20
4639.70520279722
 30
0.0
 11
1.499999999999995
 21
-0.0000000000000896
 31
0.0
210
0.0
220
0.0
230
1.0
 40
0.577350269189626
 41
0.7853981633977654
 42
2.620117338322533
  0
LINE
  5
640A
330
1A
100
AcDbEntity
  8
Visible (ISO)
100
AcDbLine
 10
4084.14258623756
 20
4624.130392899789
 30
0.0
 11
4079.600298665506
 21
4623.381109770511
 31
0.0
  0
ELLIPSE
  5
640B
330
1A
100
AcDbEntity
  8
Visible (ISO)
100
AcDbEllipse
 10
4073.943405173022
 20
4627.661878228533
 30
0.0
 11
-1.500000000000025
 21
0.0000000000000001
 31
0.0
210
0.0
220
0.0
230
1.0
 40
0.577350269189626
 41
5.233864295652311
 42
7.068583470577067
  0
LINE
  5
640C
330
1A
100
AcDbEntity
  8
Visible (ISO)
100
AcDbLine
 10
4073.196165317737
 20
4628.412796022231
 30
0.0
 11
4078.00926916484
 21
4630.0093058987
 31
0.0
  0
LINE
  5
640D
330
1A
100
AcDbEntity
  8
Visible (ISO)
100
AcDbLine
 10
4078.00926916484
 20
4630.0093058987
 30
0.0
 11
4078.186045860138
 21
4630.111367971315
 31
0.0
  0
ELLIPSE
  5
640E
330
1A
100
AcDbEntity
  8
Visible (ISO)
100
AcDbEllipse
 10
4076.771832297769
 20
4630.927864552244
 30
0.0
 11
2.000000000000063
 21
-0.0000000000000003
 31
0.0
210
0.0
220
0.0
230
1.0
 40
0.577350269189626
 41
5.497787143782073
 42
7.068583470577006
  0
LINE
  5
640F
330
1A
100
AcDbEntity
  8
Visible (ISO)
100
AcDbLine
 10
4078.186045860138
 20
4631.744361133171
 30
0.0
 11
4074.686159218328
 21
4633.765021627954
 31
0.0
  0
ELLIPSE
  5
6410
330
1A
100
AcDbEntity
  8
Visible (ISO)
100
AcDbEllipse
 10
4072.564838874771
 20
4632.540276756562
 30
0.0
 11
-3.000000000000193
 21
-0.0000000000001787
 31
0.0
210
0.0
220
0.0
230
1.0
 40
0.577350269189626
 41
3.926990816987022
 42
4.827665106355486
  0
LINE
  5
6411
330
1A
100
AcDbEntity
  8
Visible (ISO)
100
AcDbLine
 10
4072.219775916424
 20
4634.260832050141
 30
0.0
 11
4059.268087314232
 21
4633.394997630031
 31
0.0
  0
ELLIPSE
  5
6412
330
1A
100
AcDbEntity
  8
Visible (ISO)
100
AcDbEllipse
 10
4058.692982383655
 20
4636.262589785995
 30
0.0
 11
-4.999999999999968
 21
0.0000000000000002
 31
0.0
210
0.0
220
0.0
230
1.0
 40
0.577350269189626
 41
0.7853981633974403
 42
1.686072452765845
  0
LINE
  5
6413
330
1A
100
AcDbEntity
  8
Visible (ISO)
100
AcDbLine
 10
4055.157448477724
 20
4634.221348333676
 30
0.0
 11
3910.495672701751
 21
4717.741863519385
 31
0.0
  0
ELLIPSE
  5
6414
330
1A
100
AcDbEntity
  8
Visible (ISO)
100
AcDbEllipse
 10
3914.031206607683
 20
4719.783104971704
 30
0.0
 11
-5.000000000000004
 21
0.0
 31
0.0
210
0.0
220
0.0
230
1.0
 40
0.5773502691896261
 41
5.497787143782081
 42
7.068583470577032
  0
LINE
  5
6415
330
1A
100
AcDbEntity
  8
Visible (ISO)
100
AcDbLine
 10
4084.906185819259
 20
4643.611059014349
 30
0.0
 11
4084.906185819259
 21
4648.510038499915
 31
0.0
  0
LINE
  5
6416
330
1A
100
AcDbEntity
  8
Visible (ISO)
100
AcDbLine
 10
4072.443405173022
 20
4622.762898742967
 30
0.0
 11
4072.443405173022
 21
4627.661878228533
 31
0.0
  0
LINE
  5
6417
330
1A
100
AcDbEntity
  8
Visible (ISO)
100
AcDbLine
 10
3909.031206607682
 20
4714.884125486138
 30
0.0
 11
3909.031206607682
 21
4719.783104971704
 31
0.0
  0
LINE
  5
6418
330
1A
100
AcDbEntity
  8
Visible (ISO)
100
AcDbLine
 10
4572.38851960447
 20
5647.661717665473
 30
0.0
 11
4595.629393576275
 21
5647.661717665473
 31
0.0
  0
ARC
  5
6419
330
1A
100
AcDbEntity
  8
Visible (ISO)
100
AcDbCircle
 10
4599.00895659037
 20
5614.744362924832
 30
0.0
 40
4.999999999999987
100
AcDbArc
 50
0.0
 51
51.60483549681986
  0
ARC
  5
641A
330
1A
100
AcDbEntity
  8
Visible (ISO)
100
AcDbCircle
 10
4595.629393576275
 20
5647.161717665472
 30
0.0
 40
0.4999999999999893
100
AcDbArc
 50
60.94539590084441
 51
90.0
  0
ARC
  5
641B
330
1A
100
AcDbEntity
  8
Visible (ISO)
100
AcDbCircle
 10
4572.38851960447
 20
5647.161717665472
 30
0.0
 40
0.4999999999999924
100
AcDbArc
 50
90.0
 51
119.0546040991556
  0
ARC
  5
641C
330
1A
100
AcDbEntity
  8
Visible (ISO)
100
AcDbCircle
 10
4569.008956590371
 20
5614.744362924832
 30
0.0
 40
4.999999999999983
100
AcDbArc
 50
128.3951645031801
 51
180.0
  0
LINE
  5
641D
330
1A
100
AcDbEntity
  8
Visible (ISO)
100
AcDbLine
 10
4602.114364780327
 20
5618.663092307397
 30
0.0
 11
4591.8957116764
 21
5626.760892880318
 31
0.0
  0
ARC
  5
641E
330
1A
100
AcDbEntity
  8
Visible (ISO)
100
AcDbCircle
 10
4593.75895659037
 20
5629.112130509856
 30
0.0
 40
2.999999999999976
100
AcDbArc
 50
180.0
 51
231.6048354968199
  0
LINE
  5
641F
330
1A
100
AcDbEntity
  8
Visible (ISO)
100
AcDbLine
 10
4590.758956590371
 20
5629.112130509856
 30
0.0
 11
4590.758956590371
 21
5634.061717665472
 31
0.0
  0
ARC
  5
6420
330
1A
100
AcDbEntity
  8
Visible (ISO)
100
AcDbCircle
 10
4592.758956590371
 20
5634.061717665472
 30
0.0
 40
2.0
100
AcDbArc
 50
90.0
 51
180.0
  0
LINE
  5
6421
330
1A
100
AcDbEntity
  8
Visible (ISO)
100
AcDbLine
 10
4592.758956590371
 20
5636.061717665473
 30
0.0
 11
4593.00895659037
 21
5636.061717665473
 31
0.0
  0
LINE
  5
6422
330
1A
100
AcDbEntity
  8
Visible (ISO)
100
AcDbLine
 10
4593.00895659037
 20
5636.061717665473
 30
0.0
 11
4598.366723421679
 21
5634.61367257593
 31
0.0
  0
ARC
  5
6423
330
1A
100
AcDbEntity
  8
Visible (ISO)
100
AcDbCircle
 10
4598.758086959393
 20
5636.061717665473
 30
0.0
 40
1.500000000000108
100
AcDbArc
 50
254.8759926917003
 51
270.0
  0
LINE
  5
6424
330
1A
100
AcDbEntity
  8
Visible (ISO)
100
AcDbLine
 10
4598.758086959393
 20
5634.561717665471
 30
0.0
 11
4598.80501452428
 21
5634.561717665471
 31
0.0
  0
ARC
  5
6425
330
1A
100
AcDbEntity
  8
Visible (ISO)
100
AcDbCircle
 10
4598.80501452428
 20
5635.561717665471
 30
0.0
 40
0.9999999999999944
100
AcDbArc
 50
270.0
 51
357.2993706626409
  0
LINE
  5
6426
330
1A
100
AcDbEntity
  8
Visible (ISO)
100
AcDbLine
 10
4599.803903881761
 20
5635.514600242949
 30
0.0
 11
4600.229716344425
 21
5644.541824451412
 31
0.0
  0
ARC
  5
6427
330
1A
100
AcDbEntity
  8
Visible (ISO)
100
AcDbCircle
 10
4599.230826986941
 20
5644.588941873934
 30
0.0
 40
1.000000000000001
100
AcDbArc
 50
357.2993706626409
 51
60.94539590084441
  0
LINE
  5
6428
330
1A
100
AcDbEntity
  8
Visible (ISO)
100
AcDbLine
 10
4599.71646991812
 20
5645.463099150056
 30
0.0
 11
4595.872215041864
 21
5647.598796303533
 31
0.0
  0
LINE
  5
6429
330
1A
100
AcDbEntity
  8
Visible (ISO)
100
AcDbLine
 10
4572.145698138881
 20
5647.598796303533
 30
0.0
 11
4568.301443262624
 21
5645.463099150056
 31
0.0
  0
ARC
  5
642A
330
1A
100
AcDbEntity
  8
Visible (ISO)
100
AcDbCircle
 10
4568.7870861938
 20
5644.588941873934
 30
0.0
 40
0.9999999999999998
100
AcDbArc
 50
119.0546040991556
 51
182.7006293373592
  0
LINE
  5
642B
330
1A
100
AcDbEntity
  8
Visible (ISO)
100
AcDbLine
 10
4567.78819683632
 20
5644.541824451412
 30
0.0
 11
4568.214009298978
 21
5635.514600242949
 31
0.0
  0
ARC
  5
642C
330
1A
100
AcDbEntity
  8
Visible (ISO)
100
AcDbCircle
 10
4569.212898656465
 20
5635.561717665471
 30
0.0
 40
0.9999999999999992
100
AcDbArc
 50
182.7006293373592
 51
270.0
  0
LINE
  5
642D
330
1A
100
AcDbEntity
  8
Visible (ISO)
100
AcDbLine
 10
4569.212898656465
 20
5634.561717665471
 30
0.0
 11
4569.259826221352
 21
5634.561717665471
 31
0.0
  0
ARC
  5
642E
330
1A
100
AcDbEntity
  8
Visible (ISO)
100
AcDbCircle
 10
4569.259826221352
 20
5636.061717665471
 30
0.0
 40
1.499999999999839
100
AcDbArc
 50
270.0
 51
285.1240073082997
  0
LINE
  5
642F
330
1A
100
AcDbEntity
  8
Visible (ISO)
100
AcDbLine
 10
4569.651189759066
 20
5634.61367257593
 30
0.0
 11
4575.00895659037
 21
5636.061717665473
 31
0.0
  0
LINE
  5
6430
330
1A
100
AcDbEntity
  8
Visible (ISO)
100
AcDbLine
 10
4575.00895659037
 20
5636.061717665473
 30
0.0
 11
4575.258956590371
 21
5636.061717665473
 31
0.0
  0
ARC
  5
6431
330
1A
100
AcDbEntity
  8
Visible (ISO)
100
AcDbCircle
 10
4575.258956590371
 20
5634.061717665472
 30
0.0
 40
1.999999999999999
100
AcDbArc
 50
0.0
 51
90.0
  0
LINE
  5
6432
330
1A
100
AcDbEntity
  8
Visible (ISO)
100
AcDbLine
 10
4577.25895659037
 20
5634.061717665472
 30
0.0
 11
4577.25895659037
 21
5629.112130509856
 31
0.0
  0
ARC
  5
6433
330
1A
100
AcDbEntity
  8
Visible (ISO)
100
AcDbCircle
 10
4574.25895659037
 20
5629.112130509856
 30
0.0
 40
2.999999999999991
100
AcDbArc
 50
308.3951645031801
 51
0.0
  0
LINE
  5
6434
330
1A
100
AcDbEntity
  8
Visible (ISO)
100
AcDbLine
 10
4576.122201504349
 20
5626.760892880318
 30
0.0
 11
4565.903548400418
 21
5618.663092307397
 31
0.0
  0
LINE
  5
6435
330
1A
100
AcDbEntity
  8
Visible (ISO)
100
AcDbLine
 10
4582.570637115958
 20
7764.341736080922
 30
0.0
 11
4605.81151108776
 21
7764.341736080922
 31
0.0
  0
ARC
  5
6436
330
1A
100
AcDbEntity
  8
Visible (ISO)
100
AcDbCircle
 10
4609.19107410186
 20
7731.424381340281
 30
0.0
 40
4.999999999999987
100
AcDbArc
 50
0.0
 51
51.60483549684027
  0
ARC
  5
6437
330
1A
100
AcDbEntity
  8
Visible (ISO)
100
AcDbCircle
 10
4605.81151108776
 20
7763.841736080921
 30
0.0
 40
0.4999999999999893
100
AcDbArc
 50
60.94539590103167
 51
90.0
  0
ARC
  5
6438
330
1A
100
AcDbEntity
  8
Visible (ISO)
100
AcDbCircle
 10
4582.570637115958
 20
7763.841736080921
 30
0.0
 40
0.4999999999999924
100
AcDbArc
 50
90.0
 51
119.0546040989683
  0
ARC
  5
6439
330
1A
100
AcDbEntity
  8
Visible (ISO)
100
AcDbCircle
 10
4579.19107410186
 20
7731.424381340281
 30
0.0
 40
4.999999999999983
100
AcDbArc
 50
128.3951645031597
 51
180.0
  0
LINE
  5
643A
330
1A
100
AcDbEntity
  8
Visible (ISO)
100
AcDbLine
 10
4612.296482291815
 20
7735.343110722844
 30
0.0
 11
4602.077829187886
 21
7743.440911295768
 31
0.0
  0
ARC
  5
643B
330
1A
100
AcDbEntity
  8
Visible (ISO)
100
AcDbCircle
 10
4603.94107410186
 20
7745.792148925305
 30
0.0
 40
2.999999999999976
100
AcDbArc
 50
180.0
 51
231.6048354968404
  0
LINE
  5
643C
330
1A
100
AcDbEntity
  8
Visible (ISO)
100
AcDbLine
 10
4600.94107410186
 20
7745.792148925305
 30
0.0
 11
4600.94107410186
 21
7750.741736080922
 31
0.0
  0
ARC
  5
643D
330
1A
100
AcDbEntity
  8
Visible (ISO)
100
AcDbCircle
 10
4602.94107410186
 20
7750.741736080922
 30
0.0
 40
2.0
100
AcDbArc
 50
90.0
 51
180.0
  0
LINE
  5
643E
330
1A
100
AcDbEntity
  8
Visible (ISO)
100
AcDbLine
 10
4602.94107410186
 20
7752.74173608092
 30
0.0
 11
4603.19107410186
 21
7752.74173608092
 31
0.0
  0
LINE
  5
643F
330
1A
100
AcDbEntity
  8
Visible (ISO)
100
AcDbLine
 10
4603.19107410186
 20
7752.74173608092
 30
0.0
 11
4608.548840933167
 21
7751.29369099138
 31
0.0
  0
ARC
  5
6440
330
1A
100
AcDbEntity
  8
Visible (ISO)
100
AcDbCircle
 10
4608.940204470878
 20
7752.74173608092
 30
0.0
 40
1.500000000000108
100
AcDbArc
 50
254.8759926917003
 51
270.0
  0
LINE
  5
6441
330
1A
100
AcDbEntity
  8
Visible (ISO)
100
AcDbLine
 10
4608.940204470878
 20
7751.24173608092
 30
0.0
 11
4608.987132035765
 21
7751.24173608092
 31
0.0
  0
ARC
  5
6442
330
1A
100
AcDbEntity
  8
Visible (ISO)
100
AcDbCircle
 10
4608.987132035765
 20
7752.241736080922
 30
0.0
 40
0.9999999999999944
100
AcDbArc
 50
270.0
 51
357.2993706626409
  0
LINE
  5
6443
330
1A
100
AcDbEntity
  8
Visible (ISO)
100
AcDbLine
 10
4609.986021393249
 20
7752.194618658399
 30
0.0
 11
4610.411833855915
 21
7761.221842866859
 31
0.0
  0
ARC
  5
6444
330
1A
100
AcDbEntity
  8
Visible (ISO)
100
AcDbCircle
 10
4609.412944498429
 20
7761.268960289384
 30
0.0
 40
1.000000000000001
100
AcDbArc
 50
357.2993706626409
 51
60.94539590103167
  0
LINE
  5
6445
330
1A
100
AcDbEntity
  8
Visible (ISO)
100
AcDbLine
 10
4609.898587429607
 20
7762.143117565504
 30
0.0
 11
4606.054332553354
 21
7764.278814718982
 31
0.0
  0
LINE
  5
6446
330
1A
100
AcDbEntity
  8
Visible (ISO)
100
AcDbLine
 10
4582.327815650367
 20
7764.278814718982
 30
0.0
 11
4578.483560774113
 21
7762.143117565504
 31
0.0
  0
ARC
  5
6447
330
1A
100
AcDbEntity
  8
Visible (ISO)
100
AcDbCircle
 10
4578.96920370529
 20
7761.268960289384
 30
0.0
 40
0.9999999999999998
100
AcDbArc
 50
119.0546040989683
 51
182.7006293373592
  0
LINE
  5
6448
330
1A
100
AcDbEntity
  8
Visible (ISO)
100
AcDbLine
 10
4577.970314347805
 20
7761.221842866859
 30
0.0
 11
4578.39612681047
 21
7752.194618658399
 31
0.0
  0
ARC
  5
6449
330
1A
100
AcDbEntity
  8
Visible (ISO)
100
AcDbCircle
 10
4579.395016167955
 20
7752.241736080922
 30
0.0
 40
0.9999999999999992
100
AcDbArc
 50
182.7006293373592
 51
270.0
  0
LINE
  5
644A
330
1A
100
AcDbEntity
  8
Visible (ISO)
100
AcDbLine
 10
4579.395016167955
 20
7751.24173608092
 30
0.0
 11
4579.441943732837
 21
7751.24173608092
 31
0.0
  0
ARC
  5
644B
330
1A
100
AcDbEntity
  8
Visible (ISO)
100
AcDbCircle
 10
4579.441943732837
 20
7752.74173608092
 30
0.0
 40
1.499999999999839
100
AcDbArc
 50
270.0
 51
285.1240073082997
  0
LINE
  5
644C
330
1A
100
AcDbEntity
  8
Visible (ISO)
100
AcDbLine
 10
4579.833307270551
 20
7751.29369099138
 30
0.0
 11
4585.191074101859
 21
7752.74173608092
 31
0.0
  0
LINE
  5
644D
330
1A
100
AcDbEntity
  8
Visible (ISO)
100
AcDbLine
 10
4585.191074101859
 20
7752.74173608092
 30
0.0
 11
4585.44107410186
 21
7752.74173608092
 31
0.0
  0
ARC
  5
644E
330
1A
100
AcDbEntity
  8
Visible (ISO)
100
AcDbCircle
 10
4585.44107410186
 20
7750.741736080922
 30
0.0
 40
1.999999999999999
100
AcDbArc
 50
0.0
 51
90.0
  0
LINE
  5
644F
330
1A
100
AcDbEntity
  8
Visible (ISO)
100
AcDbLine
 10
4587.441074101859
 20
7750.741736080922
 30
0.0
 11
4587.441074101859
 21
7745.792148925305
 31
0.0
  0
ARC
  5
6450
330
1A
100
AcDbEntity
  8
Visible (ISO)
100
AcDbCircle
 10
4584.441074101859
 20
7745.792148925305
 30
0.0
 40
2.999999999999991
100
AcDbArc
 50
308.3951645031597
 51
0.0
  0
LINE
  5
6451
330
1A
100
AcDbEntity
  8
Visible (ISO)
100
AcDbLine
 10
4586.304319015833
 20
7743.440911295768
 30
0.0
 11
4576.085665911903
 21
7735.343110722844
 31
0.0
  0
LINE
  5
6452
330
1A
100
AcDbEntity
  8
Visible (ISO)
100
AcDbLine
 10
4564.23257530002
 20
4646.023991994507
 30
0.0
 11
4587.473449271821
 21
4646.023991994507
 31
0.0
  0
ARC
  5
6453
330
1A
100
AcDbEntity
  8
Visible (ISO)
100
AcDbCircle
 10
4590.853012285921
 20
4613.106637253866
 30
0.0
 40
4.999999999999987
100
AcDbArc
 50
0.0
 51
51.60483549681986
  0
ARC
  5
6454
330
1A
100
AcDbEntity
  8
Visible (ISO)
100
AcDbCircle
 10
4587.473449271821
 20
4645.523991994507
 30
0.0
 40
0.4999999999999893
100
AcDbArc
 50
60.94539590103167
 51
90.0
  0
ARC
  5
6455
330
1A
100
AcDbEntity
  8
Visible (ISO)
100
AcDbCircle
 10
4564.23257530002
 20
4645.523991994507
 30
0.0
 40
0.4999999999999924
100
AcDbArc
 50
90.0
 51
119.0546040989683
  0
ARC
  5
6456
330
1A
100
AcDbEntity
  8
Visible (ISO)
100
AcDbCircle
 10
4560.853012285921
 20
4613.106637253866
 30
0.0
 40
4.999999999999983
100
AcDbArc
 50
128.3951645031801
 51
180.0
  0
LINE
  5
6457
330
1A
100
AcDbEntity
  8
Visible (ISO)
100
AcDbLine
 10
4593.958420475874
 20
4617.025366636428
 30
0.0
 11
4583.739767371947
 21
4625.123167209355
 31
0.0
  0
ARC
  5
6458
330
1A
100
AcDbEntity
  8
Visible (ISO)
100
AcDbCircle
 10
4585.603012285921
 20
4627.474404838891
 30
0.0
 40
2.999999999999976
100
AcDbArc
 50
180.0
 51
231.6048354968199
  0
LINE
  5
6459
330
1A
100
AcDbEntity
  8
Visible (ISO)
100
AcDbLine
 10
4582.603012285921
 20
4627.474404838891
 30
0.0
 11
4582.603012285921
 21
4632.423991994508
 31
0.0
  0
ARC
  5
645A
330
1A
100
AcDbEntity
  8
Visible (ISO)
100
AcDbCircle
 10
4584.603012285921
 20
4632.423991994508
 30
0.0
 40
2.0
100
AcDbArc
 50
90.0
 51
180.0
  0
LINE
  5
645B
330
1A
100
AcDbEntity
  8
Visible (ISO)
100
AcDbLine
 10
4584.603012285921
 20
4634.423991994506
 30
0.0
 11
4584.853012285921
 21
4634.423991994506
 31
0.0
  0
LINE
  5
645C
330
1A
100
AcDbEntity
  8
Visible (ISO)
100
AcDbLine
 10
4584.853012285921
 20
4634.423991994506
 30
0.0
 11
4590.210779117223
 21
4632.975946904965
 31
0.0
  0
ARC
  5
645D
330
1A
100
AcDbEntity
  8
Visible (ISO)
100
AcDbCircle
 10
4590.602142654939
 20
4634.423991994506
 30
0.0
 40
1.500000000000108
100
AcDbArc
 50
254.8759926917003
 51
270.0
  0
LINE
  5
645E
330
1A
100
AcDbEntity
  8
Visible (ISO)
100
AcDbLine
 10
4590.602142654939
 20
4632.923991994506
 30
0.0
 11
4590.649070219826
 21
4632.923991994506
 31
0.0
  0
ARC
  5
645F
330
1A
100
AcDbEntity
  8
Visible (ISO)
100
AcDbCircle
 10
4590.649070219826
 20
4633.923991994506
 30
0.0
 40
0.9999999999999944
100
AcDbArc
 50
270.0
 51
357.2993706626409
  0
LINE
  5
6460
330
1A
100
AcDbEntity
  8
Visible (ISO)
100
AcDbLine
 10
4591.64795957731
 20
4633.876874571984
 30
0.0
 11
4592.073772039972
 21
4642.904098780446
 31
0.0
  0
ARC
  5
6461
330
1A
100
AcDbEntity
  8
Visible (ISO)
100
AcDbCircle
 10
4591.074882682487
 20
4642.951216202969
 30
0.0
 40
1.000000000000001
100
AcDbArc
 50
357.2993706626409
 51
60.94539590103167
  0
LINE
  5
6462
330
1A
100
AcDbEntity
  8
Visible (ISO)
100
AcDbLine
 10
4591.560525613668
 20
4643.825373479091
 30
0.0
 11
4587.71627073741
 21
4645.961070632568
 31
0.0
  0
LINE
  5
6463
330
1A
100
AcDbEntity
  8
Visible (ISO)
100
AcDbLine
 10
4563.989753834428
 20
4645.961070632568
 30
0.0
 11
4560.145498958171
 21
4643.825373479091
 31
0.0
  0
ARC
  5
6464
330
1A
100
AcDbEntity
  8
Visible (ISO)
100
AcDbCircle
 10
4560.631141889351
 20
4642.951216202969
 30
0.0
 40
0.9999999999999998
100
AcDbArc
 50
119.0546040989683
 51
182.7006293373592
  0
LINE
  5
6465
330
1A
100
AcDbEntity
  8
Visible (ISO)
100
AcDbLine
 10
4559.632252531865
 20
4642.904098780446
 30
0.0
 11
4560.058064994527
 21
4633.876874571984
 31
0.0
  0
ARC
  5
6466
330
1A
100
AcDbEntity
  8
Visible (ISO)
100
AcDbCircle
 10
4561.056954352011
 20
4633.923991994506
 30
0.0
 40
0.9999999999999992
100
AcDbArc
 50
182.7006293373592
 51
270.0
  0
LINE
  5
6467
330
1A
100
AcDbEntity
  8
Visible (ISO)
100
AcDbLine
 10
4561.056954352011
 20
4632.923991994506
 30
0.0
 11
4561.103881916898
 21
4632.923991994506
 31
0.0
  0
ARC
  5
6468
330
1A
100
AcDbEntity
  8
Visible (ISO)
100
AcDbCircle
 10
4561.103881916898
 20
4634.423991994506
 30
0.0
 40
1.499999999999839
100
AcDbArc
 50
270.0
 51
285.1240073082997
  0
LINE
  5
6469
330
1A
100
AcDbEntity
  8
Visible (ISO)
100
AcDbLine
 10
4561.495245454612
 20
4632.975946904965
 30
0.0
 11
4566.85301228592
 21
4634.423991994506
 31
0.0
  0
LINE
  5
646A
330
1A
100
AcDbEntity
  8
Visible (ISO)
100
AcDbLine
 10
4566.85301228592
 20
4634.423991994506
 30
0.0
 11
4567.103012285921
 21
4634.423991994506
 31
0.0
  0
ARC
  5
646B
330
1A
100
AcDbEntity
  8
Visible (ISO)
100
AcDbCircle
 10
4567.103012285921
 20
4632.423991994508
 30
0.0
 40
1.999999999999999
100
AcDbArc
 50
0.0
 51
90.0
  0
LINE
  5
646C
330
1A
100
AcDbEntity
  8
Visible (ISO)
100
AcDbLine
 10
4569.10301228592
 20
4632.423991994508
 30
0.0
 11
4569.10301228592
 21
4627.474404838891
 31
0.0
  0
ARC
  5
646D
330
1A
100
AcDbEntity
  8
Visible (ISO)
100
AcDbCircle
 10
4566.10301228592
 20
4627.474404838891
 30
0.0
 40
2.999999999999991
100
AcDbArc
 50
308.3951645031801
 51
0.0
  0
LINE
  5
646E
330
1A
100
AcDbEntity
  8
Visible (ISO)
100
AcDbLine
 10
4567.966257199894
 20
4625.123167209355
 30
0.0
 11
4557.747604095964
 21
4617.025366636428
 31
0.0
  0
VIEWPORT
  5
22
102
{ACAD_XDICTIONARY
360
275DB
102
}
330
17
100
AcDbEntity
 67
     1
  8
0
100
AcDbViewport
 10
144.6424255371093
 20
100.7639141082763
 30
0.0
 40
346.4348652353054
 41
222.1517806396485
 68
     1
 69
     1
 12
144.6424255371093
 22
100.7639141082763
 13
0.0
 23
0.0
 14
10.0
 24
10.0
 15
10.0
 25
10.0
 16
0.0
 26
0.0
 36
1.0
 17
0.0
 27
0.0
 37
0.0
 42
50.0
 43
0.0
 44
0.0
 45
222.1517806396485
 50
0.0
 51
0.0
 72
   100
 90
    32800
  1

281
     0
 71
     1
 74
     0
110
0.0
120
0.0
130
0.0
111
1.0
121
0.0
131
0.0
112
0.0
122
1.0
132
0.0
 79
     0
146
0.0
  0
VIEWPORT
  5
A1
102
{ACAD_XDICTIONARY
360
275E0
102
}
330
17
100
AcDbEntity
 67
     1
  8
0
100
AcDbViewport
 10
139.8164286613464
 20
100.7850790023803
 30
0.0
 40
223.7062858581543
 41
161.2561264038086
 68
     2
 69
     2
 12
1000.0
 22
1000.0
 13
0.0
 23
0.0
 14
67.0
 24
67.0
 15
67.0
 25
67.0
 16
0.0
 26
0.0
 36
1.0
 17
0.0
 27
0.0
 37
0.0
 42
50.0
 43
0.0
 44
0.0
 45
2025.263157894737
 50
0.0
 51
0.0
 72
   100
 90
    33312
  1

281
     0
 71
     1
 74
     0
110
0.0
120
0.0
130
0.0
111
1.0
121
0.0
131
0.0
112
0.0
122
1.0
132
0.0
 79
     0
146
0.0
  0
ENDSEC
  0
SECTION
  2
OBJECTS
  0
DICTIONARY
  5
C
330
0
100
AcDbDictionary
281
     1
  3
ACAD_COLOR
350
1C4
  3
ACAD_GROUP
350
D
  3
ACAD_LAYOUT
350
91
  3
ACAD_MATERIAL
350
197
  3
ACAD_MLEADERSTYLE
350
1D9
  3
ACAD_MLINESTYLE
350
E
  3
ACAD_PLOTSETTINGS
350
92
  3
ACAD_PLOTSTYLENAME
350
8F
  3
ACAD_SCALELIST
350
1C7
  3
ACAD_TABLESTYLE
350
1C5
  3
ACAD_VISUALSTYLE
350
1B0
  3
ACDB_RECOMPOSE_DATA
350
275D9
  3
ACDBVARIABLEDICTIONARY
350
5D
  3
DWGPROPS
350
275DA
  0
DICTIONARY
  5
141C8
330
8
100
AcDbDictionary
280
     1
281
     1
  0
DICTIONARY
  5
1E7
330
2
100
AcDbDictionary
280
     1
281
     1
  3
ACAD_LAYERSTATES
360
1E8
  0
DICTIONARY
  5
141B5
330
F
100
AcDbDictionary
280
     1
281
     1
  3
ADSK_XREC_LAYER_RECONCILED
360
141B6
  0
DICTIONARY
  5
141B7
330
83
100
AcDbDictionary
280
     1
281
     1
  3
ADSK_XREC_LAYER_RECONCILED
360
141B8
  0
DICTIONARY
  5
141B9
330
84
100
AcDbDictionary
280
     1
281
     1
  3
ADSK_XREC_LAYER_RECONCILED
360
141BA
  0
DICTIONARY
  5
141BB
330
85
100
AcDbDictionary
280
     1
281
     1
  3
ADSK_XREC_LAYER_RECONCILED
360
141BC
  0
DICTIONARY
  5
141BD
330
86
100
AcDbDictionary
280
     1
281
     1
  3
ADSK_XREC_LAYER_RECONCILED
360
141BE
  0
DICTIONARY
  5
141BF
330
98
100
AcDbDictionary
280
     1
281
     1
  3
ADSK_XREC_LAYER_RECONCILED
360
141C0
  0
DICTIONARY
  5
1E0
330
1DF
100
AcDbDictionary
280
     1
281
     1
  3
ADSK_XREC_LAYER_RECONCILED
360
141C1
  0
DICTIONARY
  5
1E2
330
1E1
100
AcDbDictionary
280
     1
281
     1
  3
ADSK_XREC_LAYER_RECONCILED
360
141C2
  0
DICTIONARY
  5
1E4
330
1E3
100
AcDbDictionary
280
     1
281
     1
  3
ADSK_XREC_LAYER_RECONCILED
360
141C3
  0
DICTIONARY
  5
1E6
330
1E5
100
AcDbDictionary
280
     1
281
     1
  3
ADSK_XREC_LAYER_RECONCILED
360
141C4
  0
DICTIONARY
  5
154D5
330
1A
100
AcDbDictionary
280
     1
281
     1
  3
ACAD_SORTENTS
360
154D6
  0
DICTIONARY
  5
275DB
330
22
100
AcDbDictionary
280
     1
281
     1
  3
ACAD_XREC_ROUNDTRIP
360
275DC
  0
DICTIONARY
  5
275E0
330
A1
100
AcDbDictionary
280
     1
281
     1
  3
ACAD_XREC_ROUNDTRIP
360
275E1
  0
DICTIONARY
  5
1C4
102
{ACAD_REACTORS
330
C
102
}
330
C
100
AcDbDictionary
281
     1
  0
DICTIONARY
  5
D
102
{ACAD_REACTORS
330
C
102
}
330
C
100
AcDbDictionary
281
     1
  0
DICTIONARY
  5
91
102
{ACAD_REACTORS
330
C
102
}
330
C
100
AcDbDictionary
281
     1
  3
Layout1
350
94
  3
Model
350
93
  0
DICTIONARY
  5
197
102
{ACAD_REACTORS
330
C
102
}
330
C
100
AcDbDictionary
281
     1
  3
ByBlock
350
1A0
  3
ByLayer
350
198
  3
Global
350
1A8
  0
DICTIONARY
  5
1D9
102
{ACAD_REACTORS
330
C
102
}
330
C
100
AcDbDictionary
281
     1
  3
Standard
350
1DA
  0
DICTIONARY
  5
E
102
{ACAD_REACTORS
330
C
102
}
330
C
100
AcDbDictionary
281
     1
  3
STANDARD
350
13
  0
DICTIONARY
  5
92
102
{ACAD_REACTORS
330
C
102
}
330
C
100
AcDbDictionary
281
     1
  0
ACDBDICTIONARYWDFLT
  5
8F
102
{ACAD_REACTORS
330
C
102
}
330
C
100
AcDbDictionary
281
     1
  3
Normal
350
90
100
AcDbDictionaryWithDefault
340
90
  0
DICTIONARY
  5
1C7
102
{ACAD_REACTORS
330
C
102
}
330
C
100
AcDbDictionary
281
     1
  3
A0
350
1C8
  3
A1
350
1C9
  3
A2
350
1CA
  3
A3
350
1CB
  3
A4
350
1CC
  3
A5
350
1CD
  3
A6
350
1CE
  3
A7
350
1CF
  3
A8
350
1D0
  3
A9
350
1D1
  3
B0
350
1D2
  3
B1
350
1D3
  3
B2
350
1D4
  3
B3
350
1D5
  3
B4
350
1D6
  3
B5
350
1D7
  3
B6
350
1D8
  0
DICTIONARY
  5
1C5
102
{ACAD_REACTORS
330
C
102
}
330
C
100
AcDbDictionary
281
     1
  3
Standard
350
1C6
  0
DICTIONARY
  5
1B0
102
{ACAD_REACTORS
330
C
102
}
330
C
100
AcDbDictionary
281
     1
  3
2dWireframe
350
1B6
  3
3D Hidden
350
1B8
  3
3dWireframe
350
1B7
  3
Basic
350
1B5
  3
Brighten
350
1BC
  3
ColorChange
350
1C0
  3
Conceptual
350
1B9
  3
Dim
350
1BB
  3
EdgeColorOff
350
1C3
  3
Facepattern
350
1BF
  3
Flat
350
1B1
  3
FlatWithEdges
350
1B2
  3
Gouraud
350
1B3
  3
GouraudWithEdges
350
1B4
  3
JitterOff
350
1C1
  3
Linepattern
350
1BE
  3
OverhangOff
350
1C2
  3
Realistic
350
1BA
  3
Thicken
350
1BD
  0
XRECORD
  5
275D9
102
{ACAD_REACTORS
330
C
102
}
330
C
100
AcDbXrecord
280
     1
 90
        1
330
1C6
330
586C
330
586D
330
5877
330
5878
330
5882
330
5883
330
588D
330
588E
330
61A7
330
61A8
330
61A9
330
61AA
330
61AB
330
61AC
330
61AD
330
61AE
  0
DICTIONARY
  5
5D
102
{ACAD_REACTORS
330
C
102
}
330
C
100
AcDbDictionary
281
     1
  3
CANNOSCALE
350
141FD
  3
CMLEADERSTYLE
350
141FC
  3
CTABLESTYLE
350
141FB
  3
DIMADEC
350
5E
  3
DIMASSOC
350
14416
  3
INDEXCTL
350
14415
  3
LAYEREVAL
350
149FB
  3
LAYERNOTIFY
350
149FC
  3
LIGHTINGUNITS
350
149FA
  3
MSLTSCALE
350
149F9
  3
SORTENTS
350
14414
  3
XCLIPFRAME
350
275D7
  0
XRECORD
  5
275DA
102
{ACAD_REACTORS
330
C
102
}
330
C
100
AcDbXrecord
280
     1
  1
DWGPROPS COOKIE
  2

  3

  4

  6

  7

  8
Estacio cad1
  9

300
=
301
=
302
=
303
=
304
=
305
=
306
=
307
=
308
=
309
=
 40
0.8802842245370371
 41
2455468.465042303
 42
2458249.49491507
  1

 90
        0
  0
DICTIONARY
  5
1E8
102
{ACAD_REACTORS
330
1E7
102
}
330
1E7
100
AcDbDictionary
281
     1
  0
XRECORD
  5
141B6
102
{ACAD_REACTORS
330
141B5
102
}
330
141B5
100
AcDbXrecord
280
     1
290
     1
  0
XRECORD
  5
141B8
102
{ACAD_REACTORS
330
141B7
102
}
330
141B7
100
AcDbXrecord
280
     1
290
     1
  0
XRECORD
  5
141BA
102
{ACAD_REACTORS
330
141B9
102
}
330
141B9
100
AcDbXrecord
280
     1
290
     1
  0
XRECORD
  5
141BC
102
{ACAD_REACTORS
330
141BB
102
}
330
141BB
100
AcDbXrecord
280
     1
290
     1
  0
XRECORD
  5
141BE
102
{ACAD_REACTORS
330
141BD
102
}
330
141BD
100
AcDbXrecord
280
     1
290
     1
  0
XRECORD
  5
141C0
102
{ACAD_REACTORS
330
141BF
102
}
330
141BF
100
AcDbXrecord
280
     1
290
     1
  0
XRECORD
  5
141C1
102
{ACAD_REACTORS
330
1E0
102
}
330
1E0
100
AcDbXrecord
280
     1
290
     1
  0
XRECORD
  5
141C2
102
{ACAD_REACTORS
330
1E2
102
}
330
1E2
100
AcDbXrecord
280
     1
290
     1
  0
XRECORD
  5
141C3
102
{ACAD_REACTORS
330
1E4
102
}
330
1E4
100
AcDbXrecord
280
     1
290
     1
  0
XRECORD
  5
141C4
102
{ACAD_REACTORS
330
1E6
102
}
330
1E6
100
AcDbXrecord
280
     1
290
     1
  0
SORTENTSTABLE
  5
154D6
102
{ACAD_REACTORS
330
154D5
102
}
330
154D5
100
AcDbSortentsTable
330
1A
331
63C5
  5
63C5
331
6239
  5
6239
331
586C
  5
586C
331
6281
  5
6281
331
63CB
  5
63CB
331
63E0
  5
63E0
331
6428
  5
6428
331
62D5
  5
62D5
331
5874
  5
5874
331
623F
  5
623F
331
629C
  5
629C
331
6287
  5
6287
331
63E6
  5
63E6
331
642E
  5
642E
331
62DB
  5
62DB
331
62F0
  5
62F0
331
6338
  5
6338
331
587A
  5
587A
331
62A2
  5
62A2
331
6401
  5
6401
331
63EC
  5
63EC
331
6449
  5
6449
331
6434
  5
6434
331
62F6
  5
62F6
331
61AD
  5
61AD
331
633E
  5
633E
331
62BD
  5
62BD
331
6407
  5
6407
331
644F
  5
644F
331
62FC
  5
62FC
331
6311
  5
6311
331
61C8
  5
61C8
331
61B3
  5
61B3
331
6359
  5
6359
331
6344
  5
6344
331
61E0
  5
61E0
331
6422
  5
6422
331
640D
  5
640D
331
646A
  5
646A
331
6455
  5
6455
331
6317
  5
6317
331
61CE
  5
61CE
331
635F
  5
635F
331
61E6
  5
61E6
331
6332
  5
6332
331
631D
  5
631D
331
637A
  5
637A
331
6365
  5
6365
331
6201
  5
6201
331
61EC
  5
61EC
331
6249
  5
6249
331
6380
  5
6380
331
6207
  5
6207
331
624F
  5
624F
331
639B
  5
639B
331
6386
  5
6386
331
6222
  5
6222
331
620D
  5
620D
331
626A
  5
626A
331
6255
  5
6255
331
63B4
  5
63B4
331
63A1
  5
63A1
331
6228
  5
6228
331
6270
  5
6270
331
63BA
  5
63BA
331
62C4
  5
62C4
331
63A7
  5
63A7
331
6243
  5
6243
331
622E
  5
622E
331
628B
  5
628B
331
6276
  5
6276
331
63D5
  5
63D5
331
62CA
  5
62CA
331
5867
  5
5867
331
6291
  5
6291
331
63F0
  5
63F0
331
63DB
  5
63DB
331
6438
  5
6438
331
62E5
  5
62E5
331
5884
  5
5884
331
62AC
  5
62AC
331
6297
  5
6297
331
63F6
  5
63F6
331
643E
  5
643E
331
62EB
  5
62EB
331
6300
  5
6300
331
6348
  5
6348
331
588A
  5
588A
331
62B2
  5
62B2
331
6411
  5
6411
331
63FC
  5
63FC
331
6459
  5
6459
331
6444
  5
6444
331
6306
  5
6306
331
61BD
  5
61BD
331
634E
  5
634E
331
61D5
  5
61D5
331
6417
  5
6417
331
645F
  5
645F
331
6321
  5
6321
331
630C
  5
630C
331
61C3
  5
61C3
331
6369
  5
6369
331
6354
  5
6354
331
61F0
  5
61F0
331
61DB
  5
61DB
331
641D
  5
641D
331
6465
  5
6465
331
6327
  5
6327
331
636F
  5
636F
331
61F6
  5
61F6
331
632D
  5
632D
331
638A
  5
638A
331
6375
  5
6375
331
6211
  5
6211
331
61FC
  5
61FC
331
6259
  5
6259
331
6390
  5
6390
331
6217
  5
6217
331
625F
  5
625F
331
63AB
  5
63AB
331
6396
  5
6396
331
6232
  5
6232
331
621D
  5
621D
331
627A
  5
627A
331
6265
  5
6265
331
63C4
  5
63C4
331
6238
  5
6238
331
586B
  5
586B
331
6280
  5
6280
331
63CA
  5
63CA
331
62D4
  5
62D4
331
5873
  5
5873
331
623E
  5
623E
331
629B
  5
629B
331
6286
  5
6286
331
63E5
  5
63E5
331
642D
  5
642D
331
62DA
  5
62DA
331
5879
  5
5879
331
62A1
  5
62A1
331
6400
  5
6400
331
63EB
  5
63EB
331
6448
  5
6448
331
6433
  5
6433
331
62F5
  5
62F5
331
61AC
  5
61AC
331
633D
  5
633D
331
587F
  5
587F
331
62BC
  5
62BC
331
62A7
  5
62A7
331
6406
  5
6406
331
644E
  5
644E
331
6310
  5
6310
331
62FB
  5
62FB
331
61B2
  5
61B2
331
6358
  5
6358
331
6343
  5
6343
331
6421
  5
6421
331
640C
  5
640C
331
6469
  5
6469
331
6454
  5
6454
331
6316
  5
6316
331
61CD
  5
61CD
331
635E
  5
635E
331
61E5
  5
61E5
331
6427
  5
6427
331
6331
  5
6331
331
631C
  5
631C
331
6379
  5
6379
331
6364
  5
6364
331
6200
  5
6200
331
61EB
  5
61EB
331
6248
  5
6248
331
6337
  5
6337
331
637F
  5
637F
331
6206
  5
6206
331
624E
  5
624E
331
639A
  5
639A
331
6385
  5
6385
331
6221
  5
6221
331
620C
  5
620C
331
6269
  5
6269
331
6254
  5
6254
331
63B3
  5
63B3
331
63A0
  5
63A0
331
6227
  5
6227
331
626F
  5
626F
331
63B9
  5
63B9
331
62C3
  5
62C3
331
63A6
  5
63A6
331
6242
  5
6242
331
622D
  5
622D
331
5860
  5
5860
331
628A
  5
628A
331
6275
  5
6275
331
63D4
  5
63D4
331
63BF
  5
63BF
331
62C9
  5
62C9
331
5866
  5
5866
331
6290
  5
6290
331
63DA
  5
63DA
331
62E4
  5
62E4
331
62CF
  5
62CF
331
5883
  5
5883
331
62AB
  5
62AB
331
6296
  5
6296
331
63F5
  5
63F5
331
643D
  5
643D
331
62EA
  5
62EA
331
5889
  5
5889
331
62B1
  5
62B1
331
6410
  5
6410
331
63FB
  5
63FB
331
6458
  5
6458
331
6443
  5
6443
331
6305
  5
6305
331
61BC
  5
61BC
331
61A7
  5
61A7
331
634D
  5
634D
331
61D4
  5
61D4
331
62B7
  5
62B7
331
6416
  5
6416
331
645E
  5
645E
331
6320
  5
6320
331
630B
  5
630B
331
61C2
  5
61C2
331
6368
  5
6368
331
6353
  5
6353
331
61DA
  5
61DA
331
641C
  5
641C
331
6464
  5
6464
331
6326
  5
6326
331
636E
  5
636E
331
61F5
  5
61F5
331
632C
  5
632C
331
6389
  5
6389
331
6374
  5
6374
331
6210
  5
6210
331
61FB
  5
61FB
331
6258
  5
6258
331
638F
  5
638F
331
6216
  5
6216
331
625E
  5
625E
331
63AA
  5
63AA
331
6395
  5
6395
331
6231
  5
6231
331
621C
  5
621C
331
6279
  5
6279
331
6264
  5
6264
331
63C3
  5
63C3
331
6237
  5
6237
331
586A
  5
586A
331
627F
  5
627F
331
63C9
  5
63C9
331
62D3
  5
62D3
331
5872
  5
5872
331
623D
  5
623D
331
629A
  5
629A
331
6285
  5
6285
331
63E4
  5
63E4
331
63CF
  5
63CF
331
642C
  5
642C
331
62D9
  5
62D9
331
5878
  5
5878
331
62A0
  5
62A0
331
63EA
  5
63EA
331
6432
  5
6432
331
62F4
  5
62F4
331
62DF
  5
62DF
331
61AB
  5
61AB
331
633C
  5
633C
331
587E
  5
587E
331
62BB
  5
62BB
331
62A6
  5
62A6
331
6405
  5
6405
331
644D
  5
644D
331
62FA
  5
62FA
331
61B1
  5
61B1
331
6342
  5
6342
331
6420
  5
6420
331
640B
  5
640B
331
6468
  5
6468
331
6453
  5
6453
331
6315
  5
6315
331
61CC
  5
61CC
331
61B7
  5
61B7
331
635D
  5
635D
331
61E4
  5
61E4
331
6426
  5
6426
331
646E
  5
646E
331
6330
  5
6330
331
631B
  5
631B
331
6378
  5
6378
331
6363
  5
6363
331
61EA
  5
61EA
331
6336
  5
6336
331
637E
  5
637E
331
6205
  5
6205
331
624D
  5
624D
331
6399
  5
6399
331
6384
  5
6384
331
6220
  5
6220
331
620B
  5
620B
331
6268
  5
6268
331
6253
  5
6253
331
63B2
  5
63B2
331
639F
  5
639F
331
6226
  5
6226
331
626E
  5
626E
331
63B8
  5
63B8
331
62C2
  5
62C2
331
63A5
  5
63A5
331
6241
  5
6241
331
622C
  5
622C
331
6289
  5
6289
331
6274
  5
6274
331
63D3
  5
63D3
331
63BE
  5
63BE
331
62C8
  5
62C8
331
6247
  5
6247
331
5865
  5
5865
331
628F
  5
628F
331
63D9
  5
63D9
331
62E3
  5
62E3
331
62CE
  5
62CE
331
5882
  5
5882
331
62AA
  5
62AA
331
6295
  5
6295
331
63DF
  5
63DF
331
63F4
  5
63F4
331
643C
  5
643C
331
62E9
  5
62E9
331
5888
  5
5888
331
62B0
  5
62B0
331
63FA
  5
63FA
331
6442
  5
6442
331
6304
  5
6304
331
62EF
  5
62EF
331
61BB
  5
61BB
331
634C
  5
634C
331
588E
  5
588E
331
61D3
  5
61D3
331
62B6
  5
62B6
331
6415
  5
6415
331
645D
  5
645D
331
630A
  5
630A
331
61C1
  5
61C1
331
6352
  5
6352
331
61D9
  5
61D9
331
641B
  5
641B
331
6463
  5
6463
331
6325
  5
6325
331
61C7
  5
61C7
331
636D
  5
636D
331
61DF
  5
61DF
331
61F4
  5
61F4
331
632B
  5
632B
331
6388
  5
6388
331
6373
  5
6373
331
61FA
  5
61FA
331
638E
  5
638E
331
6215
  5
6215
331
625D
  5
625D
331
63A9
  5
63A9
331
6394
  5
6394
331
6230
  5
6230
331
621B
  5
621B
331
6278
  5
6278
331
6263
  5
6263
331
63C2
  5
63C2
331
63AF
  5
63AF
331
6236
  5
6236
331
5869
  5
5869
331
627E
  5
627E
331
63C8
  5
63C8
331
62D2
  5
62D2
331
5871
  5
5871
331
623C
  5
623C
331
586F
  5
586F
331
6299
  5
6299
331
6284
  5
6284
331
63CE
  5
63CE
331
63E3
  5
63E3
331
642B
  5
642B
331
62D8
  5
62D8
331
5877
  5
5877
331
629F
  5
629F
331
63E9
  5
63E9
331
6431
  5
6431
331
62F3
  5
62F3
331
62DE
  5
62DE
331
61AA
  5
61AA
331
633B
  5
633B
331
587D
  5
587D
331
62BA
  5
62BA
331
62A5
  5
62A5
331
63EF
  5
63EF
331
6404
  5
6404
331
644C
  5
644C
331
6437
  5
6437
331
62F9
  5
62F9
331
61B0
  5
61B0
331
6341
  5
6341
331
640A
  5
640A
331
6452
  5
6452
331
62FF
  5
62FF
331
6314
  5
6314
331
61CB
  5
61CB
331
61B6
  5
61B6
331
635C
  5
635C
331
6347
  5
6347
331
61E3
  5
61E3
331
6425
  5
6425
331
646D
  5
646D
331
631A
  5
631A
331
6362
  5
6362
331
61E9
  5
61E9
331
6335
  5
6335
331
637D
  5
637D
331
61EF
  5
61EF
331
6204
  5
6204
331
624C
  5
624C
331
6398
  5
6398
331
6383
  5
6383
331
620A
  5
620A
331
6252
  5
6252
331
63B1
  5
63B1
331
639E
  5
639E
331
6225
  5
6225
331
626D
  5
626D
331
63B7
  5
63B7
331
62C1
  5
62C1
331
63A4
  5
63A4
331
6240
  5
6240
331
622B
  5
622B
331
6288
  5
6288
331
6273
  5
6273
331
63BD
  5
63BD
331
63D2
  5
63D2
331
62C7
  5
62C7
331
6246
  5
6246
331
5864
  5
5864
331
628E
  5
628E
331
63D8
  5
63D8
331
62E2
  5
62E2
331
62CD
  5
62CD
331
5881
  5
5881
331
62A9
  5
62A9
331
6294
  5
6294
331
63DE
  5
63DE
331
63F3
  5
63F3
331
643B
  5
643B
331
62E8
  5
62E8
331
5887
  5
5887
331
62AF
  5
62AF
331
63F9
  5
63F9
331
6441
  5
6441
331
62EE
  5
62EE
331
6303
  5
6303
331
61BA
  5
61BA
331
634B
  5
634B
331
588D
  5
588D
331
62B5
  5
62B5
331
61D2
  5
61D2
331
63FF
  5
63FF
331
6414
  5
6414
331
645C
  5
645C
331
6447
  5
6447
331
6309
  5
6309
331
61C0
  5
61C0
331
6351
  5
6351
331
61D8
  5
61D8
331
641A
  5
641A
331
6462
  5
6462
331
630F
  5
630F
331
6324
  5
6324
331
61C6
  5
61C6
331
636C
  5
636C
331
6357
  5
6357
331
61DE
  5
61DE
331
61F3
  5
61F3
331
632A
  5
632A
331
6372
  5
6372
331
61F9
  5
61F9
331
638D
  5
638D
331
61FF
  5
61FF
331
6214
  5
6214
331
625C
  5
625C
331
63A8
  5
63A8
331
6393
  5
6393
331
621A
  5
621A
331
6262
  5
6262
331
63C1
  5
63C1
331
63AE
  5
63AE
331
6235
  5
6235
331
5868
  5
5868
331
627D
  5
627D
331
63C7
  5
63C7
331
62D1
  5
62D1
331
5870
  5
5870
331
623B
  5
623B
331
586E
  5
586E
331
6298
  5
6298
331
6283
  5
6283
331
63CD
  5
63CD
331
63E2
  5
63E2
331
642A
  5
642A
331
62D7
  5
62D7
331
5876
  5
5876
331
629E
  5
629E
331
63E8
  5
63E8
331
6430
  5
6430
331
62DD
  5
62DD
331
62F2
  5
62F2
331
61A9
  5
61A9
331
633A
  5
633A
331
587C
  5
587C
331
62A4
  5
62A4
331
62B9
  5
62B9
331
63EE
  5
63EE
331
6403
  5
6403
331
644B
  5
644B
331
6436
  5
6436
331
62F8
  5
62F8
331
61AF
  5
61AF
331
6340
  5
6340
331
62BF
  5
62BF
331
6409
  5
6409
331
6451
  5
6451
331
62FE
  5
62FE
331
6313
  5
6313
331
61CA
  5
61CA
331
61B5
  5
61B5
331
635B
  5
635B
331
6346
  5
6346
331
61E2
  5
61E2
331
640F
  5
640F
331
6424
  5
6424
331
646C
  5
646C
331
6457
  5
6457
331
6319
  5
6319
331
6361
  5
6361
331
61E8
  5
61E8
331
631F
  5
631F
331
6334
  5
6334
331
637C
  5
637C
331
6367
  5
6367
331
61EE
  5
61EE
331
6203
  5
6203
331
624B
  5
624B
331
6382
  5
6382
331
6209
  5
6209
331
6251
  5
6251
331
63B0
  5
63B0
331
639D
  5
639D
331
620F
  5
620F
331
6224
  5
6224
331
626C
  5
626C
331
6257
  5
6257
331
63B6
  5
63B6
331
62C0
  5
62C0
331
63A3
  5
63A3
331
622A
  5
622A
331
6272
  5
6272
331
63BC
  5
63BC
331
63D1
  5
63D1
331
62C6
  5
62C6
331
6245
  5
6245
331
5863
  5
5863
331
628D
  5
628D
331
63D7
  5
63D7
331
62CC
  5
62CC
331
62E1
  5
62E1
331
5880
  5
5880
331
6293
  5
6293
331
62A8
  5
62A8
331
63DD
  5
63DD
331
63F2
  5
63F2
331
643A
  5
643A
331
62E7
  5
62E7
331
5886
  5
5886
331
62AE
  5
62AE
331
63F8
  5
63F8
331
6440
  5
6440
331
62ED
  5
62ED
331
6302
  5
6302
331
61B9
  5
61B9
331
634A
  5
634A
331
588C
  5
588C
331
62B4
  5
62B4
331
61D1
  5
61D1
331
63FE
  5
63FE
331
6413
  5
6413
331
645B
  5
645B
331
6446
  5
6446
331
6308
  5
6308
331
61BF
  5
61BF
331
6350
  5
6350
331
61D7
  5
61D7
331
6419
  5
6419
331
6461
  5
6461
331
630E
  5
630E
331
6323
  5
6323
331
61C5
  5
61C5
331
636B
  5
636B
331
6356
  5
6356
331
61DD
  5
61DD
331
61F2
  5
61F2
331
641F
  5
641F
331
6467
  5
6467
331
6329
  5
6329
331
6371
  5
6371
331
61F8
  5
61F8
331
632F
  5
632F
331
638C
  5
638C
331
6377
  5
6377
331
61FE
  5
61FE
331
6213
  5
6213
331
625B
  5
625B
331
6392
  5
6392
331
6219
  5
6219
331
6261
  5
6261
331
63C0
  5
63C0
331
63AD
  5
63AD
331
6234
  5
6234
331
621F
  5
621F
331
627C
  5
627C
331
6267
  5
6267
331
63C6
  5
63C6
331
62D0
  5
62D0
331
623A
  5
623A
331
586D
  5
586D
331
6282
  5
6282
331
63CC
  5
63CC
331
63E1
  5
63E1
331
6429
  5
6429
331
62D6
  5
62D6
331
5875
  5
5875
331
629D
  5
629D
331
63E7
  5
63E7
331
642F
  5
642F
331
62DC
  5
62DC
331
62F1
  5
62F1
331
61A8
  5
61A8
331
6339
  5
6339
331
587B
  5
587B
331
62A3
  5
62A3
331
62B8
  5
62B8
331
63ED
  5
63ED
331
6402
  5
6402
331
644A
  5
644A
331
6435
  5
6435
331
62F7
  5
62F7
331
61AE
  5
61AE
331
633F
  5
633F
331
62BE
  5
62BE
331
6408
  5
6408
331
6450
  5
6450
331
62FD
  5
62FD
331
6312
  5
6312
331
61C9
  5
61C9
331
61B4
  5
61B4
331
635A
  5
635A
331
6345
  5
6345
331
61E1
  5
61E1
331
6423
  5
6423
331
640E
  5
640E
331
646B
  5
646B
331
6456
  5
6456
331
6318
  5
6318
331
61CF
  5
61CF
331
6360
  5
6360
331
61E7
  5
61E7
331
631E
  5
631E
331
6333
  5
6333
331
637B
  5
637B
331
6366
  5
6366
331
61ED
  5
61ED
331
6202
  5
6202
331
624A
  5
624A
331
6381
  5
6381
331
6208
  5
6208
331
6250
  5
6250
331
639C
  5
639C
331
6387
  5
6387
331
6223
  5
6223
331
620E
  5
620E
331
626B
  5
626B
331
6256
  5
6256
331
63B5
  5
63B5
331
63A2
  5
63A2
331
6229
  5
6229
331
6271
  5
6271
331
63BB
  5
63BB
331
63D0
  5
63D0
331
62C5
  5
62C5
331
6244
  5
6244
331
622F
  5
622F
331
628C
  5
628C
331
6277
  5
6277
331
63D6
  5
63D6
331
62CB
  5
62CB
331
62E0
  5
62E0
331
6292
  5
6292
331
63DC
  5
63DC
331
63F1
  5
63F1
331
6439
  5
6439
331
62E6
  5
62E6
331
5885
  5
5885
331
62AD
  5
62AD
331
63F7
  5
63F7
331
643F
  5
643F
331
62EC
  5
62EC
331
6301
  5
6301
331
61B8
  5
61B8
331
6349
  5
6349
331
588B
  5
588B
331
62B3
  5
62B3
331
61D0
  5
61D0
331
6412
  5
6412
331
63FD
  5
63FD
331
645A
  5
645A
331
6445
  5
6445
331
6307
  5
6307
331
61BE
  5
61BE
331
634F
  5
634F
331
61D6
  5
61D6
331
6418
  5
6418
331
6460
  5
6460
331
630D
  5
630D
331
6322
  5
6322
331
61C4
  5
61C4
331
636A
  5
636A
331
6355
  5
6355
331
61DC
  5
61DC
331
61F1
  5
61F1
331
641E
  5
641E
331
6466
  5
6466
331
6328
  5
6328
331
6370
  5
6370
331
61F7
  5
61F7
331
632E
  5
632E
331
638B
  5
638B
331
6376
  5
6376
331
6212
  5
6212
331
61FD
  5
61FD
331
625A
  5
625A
331
6391
  5
6391
331
6218
  5
6218
331
6260
  5
6260
331
63AC
  5
63AC
331
6397
  5
6397
331
6233
  5
6233
331
621E
  5
621E
331
627B
  5
627B
331
6266
  5
6266
  0
XRECORD
  5
275DC
102
{ACAD_REACTORS
330
275DB
102
}
330
275DB
100
AcDbXrecord
280
     1
102
SHADEPLOT
 70
     0
  0
XRECORD
  5
275E1
102
{ACAD_REACTORS
330
275E0
102
}
330
275E0
100
AcDbXrecord
280
     1
102
SHADEPLOT
 70
     0
  0
LAYOUT
  5
94
102
{ACAD_XDICTIONARY
360
275DE
102
}
102
{ACAD_REACTORS
330
91
102
}
330
91
100
AcDbPlotSettings
  1

  2
HP Color Inkjet CP1700 DIN-A4.pc3
  4
A4
  6

 40
4.222749710083006
 41
13.49372959136963
 42
4.180419921875
 43
3.84173583984375
 44
209.9733276367186
 45
296.9683227539062
 46
0.0
 47
0.0
 48
0.0
 49
0.0
140
0.0
141
0.0
142
1.0
143
1.0
 70
   688
 72
     1
 73
     1
 74
     5
  7

 75
    16
147
1.0
148
0.0
149
0.0
100
AcDbLayout
  1
Layout1
 70
     1
 71
     1
 10
-3.84173583984375
 20
-4.222749710083006
 11
293.1265869140625
 21
205.7505779266358
 12
0.0
 22
0.0
 32
0.0
 14
27.9632857322693
 24
20.15701580047608
 34
0.0
 15
251.6695715904236
 25
181.4131422042846
 35
0.0
146
0.0
 13
0.0
 23
0.0
 33
0.0
 16
1.0
 26
0.0
 36
0.0
 17
0.0
 27
1.0
 37
0.0
 76
     0
330
17
331
22
  0
LAYOUT
  5
93
102
{ACAD_XDICTIONARY
360
14569
102
}
102
{ACAD_REACTORS
330
91
102
}
330
91
100
AcDbPlotSettings
  1

  2
none_device
  4
ISO_A4_(210.00_x_297.00_MM)
  6

 40
7.5
 41
20.0
 42
7.5
 43
20.0
 44
210.0
 45
297.0
 46
0.0
 47
0.0
 48
0.0
 49
0.0
140
0.0
141
0.0
142
1.0
143
13.58902757571341
 70
 11952
 72
     1
 73
     1
 74
     0
  7

 75
     0
147
0.0735887828932822
148
-6349.871125157269
149
-3845.001585699742
100
AcDbLayout
  1
Model
 70
     1
 71
     0
 10
0.0
 20
0.0
 11
12.0
 21
9.0
 12
0.0
 22
0.0
 32
0.0
 14
0.0
 24
0.0
 34
0.0
 15
0.0
 25
0.0
 35
0.0
146
0.0
 13
0.0
 23
0.0
 33
0.0
 16
1.0
 26
0.0
 36
0.0
 17
0.0
 27
1.0
 37
0.0
 76
     0
330
1A
331
195
1001
ACAD_PSEXT
1000
Ninguna
1000
Ninguna
1000
No aplicable
1000
La presentación no se trazará a menos que se seleccione un nuevo nombre de configuración de trazador.
1070
     0
  0
MATERIAL
  5
1A0
102
{ACAD_XDICTIONARY
360
1A1
102
}
102
{ACAD_REACTORS
330
197
102
}
330
197
100
AcDbMaterial
  1
ByBlock
 72
     0
 43
0.0208333333333333
 43
0.0
 43
0.0
 43
0.0
 43
0.0
 43
0.0208333333333333
 43
0.0
 43
0.0
 43
0.0
 43
0.0
 43
1.0
 43
0.0
 43
0.0
 43
0.0
 43
0.0
 43
1.0
 77
     0
 47
0.0208333333333333
 47
0.0
 47
0.0
 47
0.0
 47
0.0
 47
0.0208333333333333
 47
0.0
 47
0.0
 47
0.0
 47
0.0
 47
1.0
 47
0.0
 47
0.0
 47
0.0
 47
0.0
 47
1.0
171
     0
 49
0.0208333333333333
 49
0.0
 49
0.0
 49
0.0
 49
0.0
 49
0.0208333333333333
 49
0.0
 49
0.0
 49
0.0
 49
0.0
 49
1.0
 49
0.0
 49
0.0
 49
0.0
 49
0.0
 49
1.0
175
     0
142
0.0208333333333333
142
0.0
142
0.0
142
0.0
142
0.0
142
0.0208333333333333
142
0.0
142
0.0
142
0.0
142
0.0
142
1.0
142
0.0
142
0.0
142
0.0
142
0.0
142
1.0
179
     0
144
0.0208333333333333
144
0.0
144
0.0
144
0.0
144
0.0
144
0.0208333333333333
144
0.0
144
0.0
144
0.0
144
0.0
144
1.0
144
0.0
144
0.0
144
0.0
144
0.0
144
1.0
147
0.0208333333333333
147
0.0
147
0.0
147
0.0
147
0.0
147
0.0208333333333333
147
0.0
147
0.0
147
0.0
147
0.0
147
1.0
147
0.0
147
0.0
147
0.0
147
0.0
147
1.0
  0
MATERIAL
  5
198
102
{ACAD_XDICTIONARY
360
199
102
}
102
{ACAD_REACTORS
330
197
102
}
330
197
100
AcDbMaterial
  1
ByLayer
 72
     0
 43
0.0208333333333333
 43
0.0
 43
0.0
 43
0.0
 43
0.0
 43
0.0208333333333333
 43
0.0
 43
0.0
 43
0.0
 43
0.0
 43
1.0
 43
0.0
 43
0.0
 43
0.0
 43
0.0
 43
1.0
 77
     0
 47
0.0208333333333333
 47
0.0
 47
0.0
 47
0.0
 47
0.0
 47
0.0208333333333333
 47
0.0
 47
0.0
 47
0.0
 47
0.0
 47
1.0
 47
0.0
 47
0.0
 47
0.0
 47
0.0
 47
1.0
171
     0
 49
0.0208333333333333
 49
0.0
 49
0.0
 49
0.0
 49
0.0
 49
0.0208333333333333
 49
0.0
 49
0.0
 49
0.0
 49
0.0
 49
1.0
 49
0.0
 49
0.0
 49
0.0
 49
0.0
 49
1.0
175
     0
142
0.0208333333333333
142
0.0
142
0.0
142
0.0
142
0.0
142
0.0208333333333333
142
0.0
142
0.0
142
0.0
142
0.0
142
1.0
142
0.0
142
0.0
142
0.0
142
0.0
142
1.0
179
     0
144
0.0208333333333333
144
0.0
144
0.0
144
0.0
144
0.0
144
0.0208333333333333
144
0.0
144
0.0
144
0.0
144
0.0
144
1.0
144
0.0
144
0.0
144
0.0
144
0.0
144
1.0
147
0.0208333333333333
147
0.0
147
0.0
147
0.0
147
0.0
147
0.0208333333333333
147
0.0
147
0.0
147
0.0
147
0.0
147
1.0
147
0.0
147
0.0
147
0.0
147
0.0
147
1.0
  0
MATERIAL
  5
1A8
102
{ACAD_XDICTIONARY
360
1A9
102
}
102
{ACAD_REACTORS
330
197
102
}
330
197
100
AcDbMaterial
  1
Global
 72
     0
 43
0.0208333333333333
 43
0.0
 43
0.0
 43
0.0
 43
0.0
 43
0.0208333333333333
 43
0.0
 43
0.0
 43
0.0
 43
0.0
 43
1.0
 43
0.0
 43
0.0
 43
0.0
 43
0.0
 43
1.0
 77
     0
 47
0.0208333333333333
 47
0.0
 47
0.0
 47
0.0
 47
0.0
 47
0.0208333333333333
 47
0.0
 47
0.0
 47
0.0
 47
0.0
 47
1.0
 47
0.0
 47
0.0
 47
0.0
 47
0.0
 47
1.0
171
     0
 49
0.0208333333333333
 49
0.0
 49
0.0
 49
0.0
 49
0.0
 49
0.0208333333333333
 49
0.0
 49
0.0
 49
0.0
 49
0.0
 49
1.0
 49
0.0
 49
0.0
 49
0.0
 49
0.0
 49
1.0
175
     0
142
0.0208333333333333
142
0.0
142
0.0
142
0.0
142
0.0
142
0.0208333333333333
142
0.0
142
0.0
142
0.0
142
0.0
142
1.0
142
0.0
142
0.0
142
0.0
142
0.0
142
1.0
179
     0
144
0.0208333333333333
144
0.0
144
0.0
144
0.0
144
0.0
144
0.0208333333333333
144
0.0
144
0.0
144
0.0
144
0.0
144
1.0
144
0.0
144
0.0
144
0.0
144
0.0
144
1.0
147
0.0208333333333333
147
0.0
147
0.0
147
0.0
147
0.0
147
0.0208333333333333
147
0.0
147
0.0
147
0.0
147
0.0
147
1.0
147
0.0
147
0.0
147
0.0
147
0.0
147
1.0
  0
MLEADERSTYLE
  5
1DA
102
{ACAD_REACTORS
330
1D9
102
}
330
1D9
100
AcDbMLeaderStyle
170
     2
171
     1
172
     0
 90
        2
 40
0.0
 41
0.0
173
     1
 91
-1056964608
340
14
 92
       -2
290
     1
 42
2.0
291
     1
 43
0.36
  3
Standard
 44
4.0
300

342
10
174
     1
178
     6
175
     1
176
     0
 93
-1056964608
 45
4.0
292
     0
297
     0
 46
4.0
 94
-1056964608
 47
1.0
 49
1.0
140
1.0
293
     1
141
0.0
294
     1
177
     0
142
1.0
295
     0
296
     0
143
0.125
1001
ACAD_MLEADERVER
1070
     2
  0
MLINESTYLE
  5
13
102
{ACAD_REACTORS
330
E
102
}
330
E
100
AcDbMlineStyle
  2
STANDARD
 70
     0
  3

 62
     0
 51
90.0
 52
90.0
 71
     2
 49
0.5
 62
   256
  6
BYLAYER
 49
-0.5
 62
   256
  6
BYLAYER
  0
ACDBPLACEHOLDER
  5
90
102
{ACAD_REACTORS
330
8F
102
}
330
8F
  0
SCALE
  5
1C8
102
{ACAD_REACTORS
330
1C7
102
}
330
1C7
100
AcDbScale
 70
     0
300
1:1
140
1.0
141
1.0
290
     1
  0
SCALE
  5
1C9
102
{ACAD_REACTORS
330
1C7
102
}
330
1C7
100
AcDbScale
 70
     0
300
1:2
140
1.0
141
2.0
290
     0
  0
SCALE
  5
1CA
102
{ACAD_REACTORS
330
1C7
102
}
330
1C7
100
AcDbScale
 70
     0
300
1:4
140
1.0
141
4.0
290
     0
  0
SCALE
  5
1CB
102
{ACAD_REACTORS
330
1C7
102
}
330
1C7
100
AcDbScale
 70
     0
300
1:5
140
1.0
141
5.0
290
     0
  0
SCALE
  5
1CC
102
{ACAD_REACTORS
330
1C7
102
}
330
1C7
100
AcDbScale
 70
     0
300
1:8
140
1.0
141
8.0
290
     0
  0
SCALE
  5
1CD
102
{ACAD_REACTORS
330
1C7
102
}
330
1C7
100
AcDbScale
 70
     0
300
1:10
140
1.0
141
10.0
290
     0
  0
SCALE
  5
1CE
102
{ACAD_REACTORS
330
1C7
102
}
330
1C7
100
AcDbScale
 70
     0
300
1:16
140
1.0
141
16.0
290
     0
  0
SCALE
  5
1CF
102
{ACAD_REACTORS
330
1C7
102
}
330
1C7
100
AcDbScale
 70
     0
300
1:20
140
1.0
141
20.0
290
     0
  0
SCALE
  5
1D0
102
{ACAD_REACTORS
330
1C7
102
}
330
1C7
100
AcDbScale
 70
     0
300
1:30
140
1.0
141
30.0
290
     0
  0
SCALE
  5
1D1
102
{ACAD_REACTORS
330
1C7
102
}
330
1C7
100
AcDbScale
 70
     0
300
1:40
140
1.0
141
40.0
290
     0
  0
SCALE
  5
1D2
102
{ACAD_REACTORS
330
1C7
102
}
330
1C7
100
AcDbScale
 70
     0
300
1:50
140
1.0
141
50.0
290
     0
  0
SCALE
  5
1D3
102
{ACAD_REACTORS
330
1C7
102
}
330
1C7
100
AcDbScale
 70
     0
300
1:100
140
1.0
141
100.0
290
     0
  0
SCALE
  5
1D4
102
{ACAD_REACTORS
330
1C7
102
}
330
1C7
100
AcDbScale
 70
     0
300
2:1
140
2.0
141
1.0
290
     0
  0
SCALE
  5
1D5
102
{ACAD_REACTORS
330
1C7
102
}
330
1C7
100
AcDbScale
 70
     0
300
4:1
140
4.0
141
1.0
290
     0
  0
SCALE
  5
1D6
102
{ACAD_REACTORS
330
1C7
102
}
330
1C7
100
AcDbScale
 70
     0
300
8:1
140
8.0
141
1.0
290
     0
  0
SCALE
  5
1D7
102
{ACAD_REACTORS
330
1C7
102
}
330
1C7
100
AcDbScale
 70
     0
300
10:1
140
10.0
141
1.0
290
     0
  0
SCALE
  5
1D8
102
{ACAD_REACTORS
330
1C7
102
}
330
1C7
100
AcDbScale
 70
     0
300
100:1
140
100.0
141
1.0
290
     0
  0
TABLESTYLE
  5
1C6
102
{ACAD_XDICTIONARY
360
141C5
102
}
102
{ACAD_REACTORS
330
1C5
102
}
330
1C5
100
AcDbTableStyle
  3
Standard
 70
     0
 71
     0
 40
1.5
 41
1.5
280
     0
281
     0
  7
STANDARD
140
4.5
170
     2
 62
     0
 63
     7
283
     0
274
    -2
284
     1
 64
     0
275
    -2
285
     1
 65
     0
276
    -2
286
     1
 66
     0
277
    -2
287
     1
 67
     0
278
    -2
288
     1
 68
     0
279
    -2
289
     1
 69
     0
  7
STANDARD
140
6.0
170
     5
 62
     0
 63
     7
283
     0
274
    -2
284
     1
 64
     0
275
    -2
285
     1
 65
     0
276
    -2
286
     1
 66
     0
277
    -2
287
     1
 67
     0
278
    -2
288
     1
 68
     0
279
    -2
289
     1
 69
     0
  7
STANDARD
140
4.5
170
     5
 62
     0
 63
     7
283
     0
274
    -2
284
     1
 64
     0
275
    -2
285
     1
 65
     0
276
    -2
286
     1
 66
     0
277
    -2
287
     1
 67
     0
278
    -2
288
     1
 68
     0
279
    -2
289
     1
 69
     0
  0
VISUALSTYLE
  5
1B6
102
{ACAD_XDICTIONARY
360
275EC
102
}
102
{ACAD_REACTORS
330
1B0
102
}
330
1B0
100
AcDbVisualStyle
  2

 70
     4
 71
     0
 72
     2
 73
     0
 90
        0
 40
-0.6
 41
-30.0
 62
     5
 63
     7
 74
     1
 91
        4
 64
     7
 65
   257
 75
     1
175
     1
 42
1.0
 92
        0
 66
   257
 43
1.0
 76
     1
 77
     6
 78
     2
 67
     7
 79
     5
170
     0
171
     0
290
     0
174
     0
 93
        1
 44
0.0
173
     0
291
     0
 45
0.0
1001
ACAD
1000
AcDbSavedByObjectVersion
1070
     0
  0
VISUALSTYLE
  5
1B8
102
{ACAD_XDICTIONARY
360
275F0
102
}
102
{ACAD_REACTORS
330
1B0
102
}
330
1B0
100
AcDbVisualStyle
  2

 70
     6
 71
     1
 72
     2
 73
     2
 90
        0
 40
-0.6
 41
-30.0
 62
     5
 63
     7
 74
     2
 91
        2
 64
     7
 65
   257
 75
     2
175
     1
 42
179.0
 92
        0
 66
   257
 43
1.0
 76
     1
 77
     6
 78
     2
 67
     7
 79
     3
170
     0
171
     0
290
     0
174
     0
 93
        1
 44
0.0
173
     0
291
     0
 45
0.0
1001
ACAD
1000
AcDbSavedByObjectVersion
1070
     0
  0
VISUALSTYLE
  5
1B7
102
{ACAD_XDICTIONARY
360
275EE
102
}
102
{ACAD_REACTORS
330
1B0
102
}
330
1B0
100
AcDbVisualStyle
  2

 70
     5
 71
     0
 72
     2
 73
     0
 90
        0
 40
-0.6
 41
-30.0
 62
     5
 63
     7
 74
     1
 91
        4
 64
     7
 65
   257
 75
     1
175
     1
 42
1.0
 92
        0
 66
   257
 43
1.0
 76
     1
 77
     6
 78
     2
 67
     7
 79
     5
170
     0
171
     0
290
     0
174
     0
 93
        1
 44
0.0
173
     0
291
     0
 45
0.0
1001
ACAD
1000
AcDbSavedByObjectVersion
1070
     0
  0
VISUALSTYLE
  5
1B5
102
{ACAD_XDICTIONARY
360
275EA
102
}
102
{ACAD_REACTORS
330
1B0
102
}
330
1B0
100
AcDbVisualStyle
  2

 70
     7
 71
     1
 72
     0
 73
     1
 90
        0
 40
-0.6
 41
-30.0
 62
     5
 63
     7
 74
     0
 91
        4
 64
     7
 65
   257
 75
     1
175
     1
 42
1.0
 92
        8
 66
     7
 43
1.0
 76
     1
 77
     6
 78
     2
 67
     7
 79
     5
170
     0
171
     0
290
     0
174
     0
 93
        1
 44
0.0
173
     0
291
     1
 45
0.0
1001
ACAD
1000
AcDbSavedByObjectVersion
1070
     0
  0
VISUALSTYLE
  5
1BC
102
{ACAD_XDICTIONARY
360
275F8
102
}
102
{ACAD_REACTORS
330
1B0
102
}
330
1B0
100
AcDbVisualStyle
  2

 70
    12
 71
     2
 72
     2
 73
     0
 90
        0
 40
-0.6
 41
-30.0
 62
     5
 63
     7
 74
     1
 91
        4
 64
     7
 65
   257
 75
     1
175
     1
 42
1.0
 92
        8
 66
     7
 43
1.0
 76
     1
 77
     6
 78
     2
 67
     7
 79
     5
170
     0
171
     0
290
     0
174
     0
 93
        1
 44
50.0
173
     0
291
     1
 45
0.0
1001
ACAD
1000
AcDbSavedByObjectVersion
1070
     0
  0
VISUALSTYLE
  5
1C0
102
{ACAD_XDICTIONARY
360
27600
102
}
102
{ACAD_REACTORS
330
1B0
102
}
330
1B0
100
AcDbVisualStyle
  2

 70
    16
 71
     2
 72
     2
 73
     3
 90
        0
 40
-0.6
 41
-30.0
 62
     5
 63
     8
 74
     1
 91
        4
 64
     7
 65
   257
 75
     1
175
     1
 42
1.0
 92
        8
 66
     8
 43
1.0
 76
     1
 77
     6
 78
     2
 67
     7
 79
     5
170
     0
171
     0
290
     0
174
     0
 93
        1
 44
0.0
173
     0
291
     1
 45
0.0
1001
ACAD
1000
AcDbSavedByObjectVersion
1070
     0
  0
VISUALSTYLE
  5
1B9
102
{ACAD_XDICTIONARY
360
275F2
102
}
102
{ACAD_REACTORS
330
1B0
102
}
330
1B0
100
AcDbVisualStyle
  2

 70
     9
 71
     3
 72
     2
 73
     0
 90
        0
 40
-0.6
 41
-30.0
 62
     5
 63
     7
 74
     2
 91
        2
 64
     7
 65
   257
 75
     1
175
     1
 42
179.0
 92
        8
 66
     7
 43
1.0
 76
     1
 77
     6
 78
     2
 67
     7
 79
     3
170
     0
171
     0
290
     0
174
     0
 93
        1
 44
0.0
173
     0
291
     0
 45
0.0
1001
ACAD
1000
AcDbSavedByObjectVersion
1070
     0
  0
VISUALSTYLE
  5
1BB
102
{ACAD_XDICTIONARY
360
275F6
102
}
102
{ACAD_REACTORS
330
1B0
102
}
330
1B0
100
AcDbVisualStyle
  2

 70
    11
 71
     2
 72
     2
 73
     0
 90
        0
 40
-0.6
 41
-30.0
 62
     5
 63
     7
 74
     1
 91
        4
 64
     7
 65
   257
 75
     1
175
     1
 42
1.0
 92
        8
 66
     7
 43
1.0
 76
     1
 77
     6
 78
     2
 67
     7
 79
     5
170
     0
171
     0
290
     0
174
     0
 93
        1
 44
-50.0
173
     0
291
     1
 45
0.0
1001
ACAD
1000
AcDbSavedByObjectVersion
1070
     0
  0
VISUALSTYLE
  5
1C3
102
{ACAD_XDICTIONARY
360
27606
102
}
102
{ACAD_REACTORS
330
1B0
102
}
330
1B0
100
AcDbVisualStyle
  2

 70
    22
 71
     2
 72
     2
 73
     0
 90
        0
 40
-0.6
 41
-30.0
 62
     5
 63
     7
 74
     1
 91
        4
 64
     7
 65
   257
 75
     1
175
     1
 42
1.0
 92
        8
 66
     7
 43
1.0
 76
     1
 77
     6
 78
     2
 67
     7
 79
     5
170
     0
171
     0
290
     0
174
     0
 93
        1
 44
0.0
173
     0
291
     1
 45
0.0
1001
ACAD
1000
AcDbSavedByObjectVersion
1070
     0
  0
VISUALSTYLE
  5
1BF
102
{ACAD_XDICTIONARY
360
275FE
102
}
102
{ACAD_REACTORS
330
1B0
102
}
330
1B0
100
AcDbVisualStyle
  2

 70
    15
 71
     2
 72
     2
 73
     0
 90
        0
 40
-0.6
 41
-30.0
 62
     5
 63
     7
 74
     1
 91
        4
 64
     7
 65
   257
 75
     1
175
     1
 42
1.0
 92
        8
 66
     7
 43
1.0
 76
     1
 77
     6
 78
     2
 67
     7
 79
     5
170
     0
171
     0
290
     0
174
     0
 93
        1
 44
0.0
173
     0
291
     1
 45
0.0
1001
ACAD
1000
AcDbSavedByObjectVersion
1070
     0
  0
VISUALSTYLE
  5
1B1
102
{ACAD_XDICTIONARY
360
275E2
102
}
102
{ACAD_REACTORS
330
1B0
102
}
330
1B0
100
AcDbVisualStyle
  2

 70
     0
 71
     2
 72
     1
 73
     1
 90
        2
 40
-0.6
 41
30.0
 62
     5
 63
     7
 74
     0
 91
        4
 64
     7
 65
   257
 75
     1
175
     1
 42
1.0
 92
        8
 66
     7
 43
1.0
 76
     1
 77
     6
 78
     2
 67
     7
 79
     5
170
     0
171
     0
290
     0
174
     0
 93
       13
 44
0.0
173
     0
291
     1
 45
0.0
1001
ACAD
1000
AcDbSavedByObjectVersion
1070
     0
  0
VISUALSTYLE
  5
1B2
102
{ACAD_XDICTIONARY
360
275E4
102
}
102
{ACAD_REACTORS
330
1B0
102
}
330
1B0
100
AcDbVisualStyle
  2

 70
     1
 71
     2
 72
     1
 73
     1
 90
        2
 40
-0.6
 41
30.0
 62
     5
 63
     7
 74
     1
 91
        4
 64
     7
 65
   257
 75
     1
175
     1
 42
1.0
 92
        0
 66
   257
 43
1.0
 76
     1
 77
     6
 78
     2
 67
     7
 79
     5
170
     0
171
     0
290
     0
174
     0
 93
       13
 44
0.0
173
     0
291
     1
 45
0.0
1001
ACAD
1000
AcDbSavedByObjectVersion
1070
     0
  0
VISUALSTYLE
  5
1B3
102
{ACAD_XDICTIONARY
360
275E6
102
}
102
{ACAD_REACTORS
330
1B0
102
}
330
1B0
100
AcDbVisualStyle
  2

 70
     2
 71
     2
 72
     2
 73
     1
 90
        2
 40
-0.6
 41
30.0
 62
     5
 63
     7
 74
     0
 91
        4
 64
     7
 65
   257
 75
     1
175
     1
 42
1.0
 92
        0
 66
     7
 43
1.0
 76
     1
 77
     6
 78
     2
 67
     7
 79
     5
170
     0
171
     0
290
     0
174
     0
 93
       13
 44
0.0
173
     0
291
     1
 45
0.0
1001
ACAD
1000
AcDbSavedByObjectVersion
1070
     0
  0
VISUALSTYLE
  5
1B4
102
{ACAD_XDICTIONARY
360
275E8
102
}
102
{ACAD_REACTORS
330
1B0
102
}
330
1B0
100
AcDbVisualStyle
  2

 70
     3
 71
     2
 72
     2
 73
     1
 90
        2
 40
-0.6
 41
30.0
 62
     5
 63
     7
 74
     1
 91
        4
 64
     7
 65
   257
 75
     1
175
     1
 42
1.0
 92
        0
 66
   257
 43
1.0
 76
     1
 77
     6
 78
     2
 67
     7
 79
     5
170
     0
171
     0
290
     0
174
     0
 93
       13
 44
0.0
173
     0
291
     1
 45
0.0
1001
ACAD
1000
AcDbSavedByObjectVersion
1070
     0
  0
VISUALSTYLE
  5
1C1
102
{ACAD_XDICTIONARY
360
27602
102
}
102
{ACAD_REACTORS
330
1B0
102
}
330
1B0
100
AcDbVisualStyle
  2

 70
    20
 71
     2
 72
     2
 73
     0
 90
        0
 40
-0.6
 41
-30.0
 62
     5
 63
     7
 74
     1
 91
        4
 64
     7
 65
   257
 75
     1
175
     1
 42
1.0
 92
       10
 66
     7
 43
1.0
 76
     1
 77
     6
 78
     2
 67
     7
 79
     5
170
     0
171
     0
290
     0
174
     0
 93
        1
 44
0.0
173
     0
291
     1
 45
0.0
1001
ACAD
1000
AcDbSavedByObjectVersion
1070
     0
  0
VISUALSTYLE
  5
1BE
102
{ACAD_XDICTIONARY
360
275FC
102
}
102
{ACAD_REACTORS
330
1B0
102
}
330
1B0
100
AcDbVisualStyle
  2

 70
    14
 71
     2
 72
     2
 73
     0
 90
        0
 40
-0.6
 41
-30.0
 62
     5
 63
     7
 74
     1
 91
        4
 64
     7
 65
   257
 75
     7
175
     7
 42
1.0
 92
        8
 66
     7
 43
1.0
 76
     1
 77
     6
 78
     2
 67
     7
 79
     5
170
     0
171
     0
290
     0
174
     0
 93
        1
 44
0.0
173
     0
291
     1
 45
0.0
1001
ACAD
1000
AcDbSavedByObjectVersion
1070
     0
  0
VISUALSTYLE
  5
1C2
102
{ACAD_XDICTIONARY
360
27604
102
}
102
{ACAD_REACTORS
330
1B0
102
}
330
1B0
100
AcDbVisualStyle
  2

 70
    21
 71
     2
 72
     2
 73
     0
 90
        0
 40
-0.6
 41
-30.0
 62
     5
 63
     7
 74
     1
 91
        4
 64
     7
 65
   257
 75
     1
175
     1
 42
1.0
 92
        9
 66
     7
 43
1.0
 76
     1
 77
     6
 78
     2
 67
     7
 79
     5
170
     0
171
     0
290
     0
174
     0
 93
        1
 44
0.0
173
     0
291
     1
 45
0.0
1001
ACAD
1000
AcDbSavedByObjectVersion
1070
     0
  0
VISUALSTYLE
  5
1BA
102
{ACAD_XDICTIONARY
360
275F4
102
}
102
{ACAD_REACTORS
330
1B0
102
}
330
1B0
100
AcDbVisualStyle
  2

 70
     8
 71
     2
 72
     2
 73
     0
 90
        0
 40
-0.6
 41
-30.0
 62
     5
 63
     7
 74
     1
 91
        0
 64
     7
 65
   257
 75
     1
175
     1
 42
1.0
 92
        8
 66
     8
 43
1.0
 76
     1
 77
     6
 78
     2
 67
     7
 79
     5
170
     0
171
     0
290
     0
174
     0
 93
       13
 44
0.0
173
     0
291
     0
 45
0.0
1001
ACAD
1000
AcDbSavedByObjectVersion
1070
     0
  0
VISUALSTYLE
  5
1BD
102
{ACAD_XDICTIONARY
360
275FA
102
}
102
{ACAD_REACTORS
330
1B0
102
}
330
1B0
100
AcDbVisualStyle
  2

 70
    13
 71
     2
 72
     2
 73
     0
 90
        0
 40
-0.6
 41
-30.0
 62
     5
 63
     7
 74
     1
 91
        4
 64
     7
 65
   257
 75
     1
175
     1
 42
1.0
 92
       12
 66
     7
 43
1.0
 76
     1
 77
     6
 78
     2
 67
     7
 79
     5
170
     0
171
     0
290
     0
174
     0
 93
        1
 44
0.0
173
     0
291
     1
 45
0.0
1001
ACAD
1000
AcDbSavedByObjectVersion
1070
     0
  0
DICTIONARYVAR
  5
141FD
102
{ACAD_REACTORS
330
5D
102
}
330
5D
100
DictionaryVariables
280
     0
  1
1:1
  0
DICTIONARYVAR
  5
141FC
102
{ACAD_REACTORS
330
5D
102
}
330
5D
100
DictionaryVariables
280
     0
  1
STANDARD
  0
DICTIONARYVAR
  5
141FB
102
{ACAD_REACTORS
330
5D
102
}
330
5D
100
DictionaryVariables
280
     0
  1
STANDARD
  0
DICTIONARYVAR
  5
5E
102
{ACAD_REACTORS
330
5D
102
}
330
5D
100
DictionaryVariables
280
     0
  1
0
  0
DICTIONARYVAR
  5
14416
102
{ACAD_REACTORS
330
5D
102
}
330
5D
100
DictionaryVariables
280
     0
  1
1
  0
DICTIONARYVAR
  5
14415
102
{ACAD_REACTORS
330
5D
102
}
330
5D
100
DictionaryVariables
280
     0
  1
0
  0
DICTIONARYVAR
  5
149FB
102
{ACAD_REACTORS
330
5D
102
}
330
5D
100
DictionaryVariables
280
     0
  1
1
  0
DICTIONARYVAR
  5
149FC
102
{ACAD_REACTORS
330
5D
102
}
330
5D
100
DictionaryVariables
280
     0
  1
15
  0
DICTIONARYVAR
  5
149FA
102
{ACAD_REACTORS
330
5D
102
}
330
5D
100
DictionaryVariables
280
     0
  1
0
  0
DICTIONARYVAR
  5
149F9
102
{ACAD_REACTORS
330
5D
102
}
330
5D
100
DictionaryVariables
280
     0
  1
0
  0
DICTIONARYVAR
  5
14414
102
{ACAD_REACTORS
330
5D
102
}
330
5D
100
DictionaryVariables
280
     0
  1
127
  0
DICTIONARYVAR
  5
275D7
102
{ACAD_REACTORS
330
5D
102
}
330
5D
100
DictionaryVariables
280
     0
  1
2
  0
DICTIONARY
  5
275DE
330
94
100
AcDbDictionary
280
     1
281
     1
  3
ACAD_XREC_ROUNDTRIP
360
275DF
  0
DICTIONARY
  5
14569
330
93
100
AcDbDictionary
280
     1
281
     1
  3
ACAD_XREC_ROUNDTRIP
360
275DD
  3
ADSK_XREC_LAYOUTTHUMBNAIL
360
1456A
  0
DICTIONARY
  5
1A1
330
1A0
100
AcDbDictionary
280
     1
281
     1
  3
ACAD_XREC_ROUNDTRIP
360
275A2
  3
BUMPTILE
360
1A3
  3
DIFFUSETILE
360
1A2
  3
OPACITYTILE
360
1A6
  3
REFLECTIONTILE
360
1A5
  3
REFRACTIONTILE
360
1A7
  3
SPECULARTILE
360
1A4
  0
DICTIONARY
  5
199
330
198
100
AcDbDictionary
280
     1
281
     1
  3
ACAD_XREC_ROUNDTRIP
360
275A1
  3
BUMPTILE
360
19B
  3
DIFFUSETILE
360
19A
  3
OPACITYTILE
360
19E
  3
REFLECTIONTILE
360
19D
  3
REFRACTIONTILE
360
19F
  3
SPECULARTILE
360
19C
  0
DICTIONARY
  5
1A9
330
1A8
100
AcDbDictionary
280
     1
281
     1
  3
ACAD_XREC_ROUNDTRIP
360
275A3
  3
BUMPTILE
360
1AB
  3
DIFFUSETILE
360
1AA
  3
OPACITYTILE
360
1AE
  3
REFLECTIONTILE
360
1AD
  3
REFRACTIONTILE
360
1AF
  3
SPECULARTILE
360
1AC
  0
DICTIONARY
  5
141C5
330
1C6
100
AcDbDictionary
280
     1
281
     1
  3
ACAD_ROUNDTRIP_2008_TABLESTYLE_CELLSTYLEMAP
360
275D8
  3
ACAD_XREC_ROUNDTRIP
360
27608
  0
DICTIONARY
  5
275EC
330
1B6
100
AcDbDictionary
280
     1
281
     1
  3
ACAD_XREC_ROUNDTRIP
360
275ED
  0
DICTIONARY
  5
275F0
330
1B8
100
AcDbDictionary
280
     1
281
     1
  3
ACAD_XREC_ROUNDTRIP
360
275F1
  0
DICTIONARY
  5
275EE
330
1B7
100
AcDbDictionary
280
     1
281
     1
  3
ACAD_XREC_ROUNDTRIP
360
275EF
  0
DICTIONARY
  5
275EA
330
1B5
100
AcDbDictionary
280
     1
281
     1
  3
ACAD_XREC_ROUNDTRIP
360
275EB
  0
DICTIONARY
  5
275F8
330
1BC
100
AcDbDictionary
280
     1
281
     1
  3
ACAD_XREC_ROUNDTRIP
360
275F9
  0
DICTIONARY
  5
27600
330
1C0
100
AcDbDictionary
280
     1
281
     1
  3
ACAD_XREC_ROUNDTRIP
360
27601
  0
DICTIONARY
  5
275F2
330
1B9
100
AcDbDictionary
280
     1
281
     1
  3
ACAD_XREC_ROUNDTRIP
360
275F3
  0
DICTIONARY
  5
275F6
330
1BB
100
AcDbDictionary
280
     1
281
     1
  3
ACAD_XREC_ROUNDTRIP
360
275F7
  0
DICTIONARY
  5
27606
330
1C3
100
AcDbDictionary
280
     1
281
     1
  3
ACAD_XREC_ROUNDTRIP
360
27607
  0
DICTIONARY
  5
275FE
330
1BF
100
AcDbDictionary
280
     1
281
     1
  3
ACAD_XREC_ROUNDTRIP
360
275FF
  0
DICTIONARY
  5
275E2
330
1B1
100
AcDbDictionary
280
     1
281
     1
  3
ACAD_XREC_ROUNDTRIP
360
275E3
  0
DICTIONARY
  5
275E4
330
1B2
100
AcDbDictionary
280
     1
281
     1
  3
ACAD_XREC_ROUNDTRIP
360
275E5
  0
DICTIONARY
  5
275E6
330
1B3
100
AcDbDictionary
280
     1
281
     1
  3
ACAD_XREC_ROUNDTRIP
360
275E7
  0
DICTIONARY
  5
275E8
330
1B4
100
AcDbDictionary
280
     1
281
     1
  3
ACAD_XREC_ROUNDTRIP
360
275E9
  0
DICTIONARY
  5
27602
330
1C1
100
AcDbDictionary
280
     1
281
     1
  3
ACAD_XREC_ROUNDTRIP
360
27603
  0
DICTIONARY
  5
275FC
330
1BE
100
AcDbDictionary
280
     1
281
     1
  3
ACAD_XREC_ROUNDTRIP
360
275FD
  0
DICTIONARY
  5
27604
330
1C2
100
AcDbDictionary
280
     1
281
     1
  3
ACAD_XREC_ROUNDTRIP
360
27605
  0
DICTIONARY
  5
275F4
330
1BA
100
AcDbDictionary
280
     1
281
     1
  3
ACAD_XREC_ROUNDTRIP
360
275F5
  0
DICTIONARY
  5
275FA
330
1BD
100
AcDbDictionary
280
     1
281
     1
  3
ACAD_XREC_ROUNDTRIP
360
275FB
  0
XRECORD
  5
275DF
102
{ACAD_REACTORS
330
275DE
102
}
330
275DE
100
AcDbXrecord
280
     1
102
SHADEPLOT
 70
     0
102
SHADEPLOTRESLEVEL
 70
     2
102
SHADEPLOTCUSTOMDPI
 70
   300
  0
XRECORD
  5
275DD
102
{ACAD_REACTORS
330
14569
102
}
330
14569
100
AcDbXrecord
280
     1
102
SHADEPLOT
 70
     0
102
SHADEPLOTRESLEVEL
 70
     2
102
SHADEPLOTCUSTOMDPI
 70
   300
  0
XRECORD
  5
1456A
102
{ACAD_REACTORS
330
14569
102
}
330
14569
100
AcDbXrecord
280
     1
310
2800000000010000A9000000010008000000000000A9000000000000000000000001000000000000F0FCFE0000000000FFFFFF000000000000000000000000000000000000000000000000000000000000000000330000006600000099000000CC000000FF00000000330000333300006633000099330000CC330000FF3300
310
0000660000336600006666000099660000CC660000FF66000000990000339900006699000099990000CC990000FF99000000CC000033CC000066CC000099CC0000CCCC0000FFCC000000FF000033FF000066FF000099FF0000CCFF0000FFFF000000003300330033006600330099003300CC003300FF003300003333003333
310
33006633330099333300CC333300FF33330000663300336633006666330099663300CC663300FF66330000993300339933006699330099993300CC993300FF99330000CC330033CC330066CC330099CC3300CCCC3300FFCC330000FF330033FF330066FF330099FF3300CCFF3300FFFF330000006600330066006600660099
310
006600CC006600FF00660000336600333366006633660099336600CC336600FF33660000666600336666006666660099666600CC666600FF66660000996600339966006699660099996600CC996600FF99660000CC660033CC660066CC660099CC6600CCCC6600FFCC660000FF660033FF660066FF660099FF6600CCFF6600
310
FFFF660000009900330099006600990099009900CC009900FF00990000339900333399006633990099339900CC339900FF33990000669900336699006666990099669900CC669900FF66990000999900339999006699990099999900CC999900FF99990000CC990033CC990066CC990099CC9900CCCC9900FFCC990000FF99
310
0033FF990066FF990099FF9900CCFF9900FFFF99000000CC003300CC006600CC009900CC00CC00CC00FF00CC000033CC003333CC006633CC009933CC00CC33CC00FF33CC000066CC003366CC006666CC009966CC00CC66CC00FF66CC000099CC003399CC006699CC009999CC00CC99CC00FF99CC0000CCCC0033CCCC0066CC
310
CC0099CCCC00CCCCCC00FFCCCC0000FFCC0033FFCC0066FFCC0099FFCC00CCFFCC00FFFFCC000000FF003300FF006600FF009900FF00CC00FF00FF00FF000033FF003333FF006633FF009933FF00CC33FF00FF33FF000066FF003366FF006666FF009966FF00CC66FF00FF66FF000099FF003399FF006699FF009999FF00CC
310
99FF00FF99FF0000CCFF0033CCFF0066CCFF0099CCFF00CCCCFF00FFCCFF0000FFFF0033FFFF0066FFFF0099FFFF00CCFFFF00FFFFFF00000000000D0D0D001A1A1A00282828003535350043434300505050005D5D5D006B6B6B00787878008686860093939300A1A1A100AEAEAE00BBBBBB00C9C9C900D6D6D600E4E4E400
310
F1F1F100FFFFFF0000000000000000000000000000000000000000000000000000000000000000000000000000000000E1E1E1E1E1E1E1E1E1E1E1E1E1E1E1E1E1E1E1E1E1E1E1E1E1E1E1E1E1E1E1E1E1E1E1E1E1E1E1E1E1E1E1E1E1E1E1E1E1E1E1E1E1E1E2E1E1E1E1E1E1E1E1E1E1E1E1E1E1E1E2E1E1E1E1E1E1E1E1
310
E1E1E1E1E1E1E1E1E1E1E1E1E1E1E1E1E1E1E1E1E1E2E1E1E1E1E1E1E1E1E1E1E1E1E1E1E1E1E1E1E1E1E1E1E1E1E1E1E1E1E1E1E1E1E1E1E1E1E1E1E1E1E1E1E1E2E2E2E2E2E2E2E2E2E2E1E1E1E1E1E1E1E1E1E1E1E1E1E1E1E1E1E1E1E1E1E1E1E1E1E1E1E1E1E1E1E1E1E1E1E1E1E2E1E1E1E1E1E1E1E1E1E1E1E1E1E1
310
E1E1E1E1E1E1E1E1E1E1E1E1E1E1E1E1E1E1E1E1E1E1E1E1E1E1E1E1E1E1E1E1E1E1E1E1E1E1E1E1E1E1E1E1E1E1E1E1E1E1E1E1E1E1E1E1E1E1E1E1E1E1E1E1E1E1E1E1E1E1E1E1E1E1E1E1E1E1E1E1E1E1E1E1E1E1E1E1E1E1E1E1E1E1E1E1E1E1E1E1E1E1E1E1E2E1E1E1E1E1E1E1E1E1E1E1E1E1E1E1E2E1E1E1E1E1E1
310
E1E1E1E1E1E1E1E1E1E1E1E1E1E1E1E1E1E1E1E1E1E1E1E2E1E1E1E1E1E1E1E1E1E1E1E1E1E1E1E1E1E1E1E1E1E1E1E1E1E1E1E1E1E1E1E1E1E1E1E1E1E1E1E1E1E1E1E2E1E1E1E1E1E1E1E1E2E1E1E1E1E1E1E1E1E1E1E1E1E1E1E1E1E1E1E1E1E1E1E1E1E1E1E1E1E1E1E1E1E1E1E1E1E1E2E1E1E1E1E1E1E1E1E1E1E1E1
310
E1E1E1E1E1E1E1E1E1E1E1E1E1E1E1E1E1E1E1E1E1E1E1E1E1E1E1E1E1E1E1E1E1E1E1E1E1E1E1E1E1E1E1E1E1E1E1E1E1E1E1E1F0E2E2E2E2E2E1E1E1E1E1E1E1E1E1E1E1E1E1E1E1E1E1E1E1E1E1E1E1E1E1E1E1E1E1E1E1E1E1E1E1E1E1E1E1E1E1E1E1E1E1E1E1E1E2E1E1E1E1E1E1E1E1E1E1E1E1E1E1E1E2E1E1E1E1
310
E1E1E1E1E1E1E1E1E1E1E1E1E1E1E1E1E1E1E1E1E1E1E1E1E1E2E1E1E1E1E1E1E1E1E1E1E1E1E1E1E1E1E1E1E1E1E1E1E1E1E1E1E1E1E1E1E1E1E1E1E1E1E1E1E1E1E1E1E1E2E1E1E1E1E1E1E1E1E2E1E1E1E1E1E1E1E1E1E1E1E1E1E1E1E1E1E1E1E1E1E1E1E1E1E1E1E1E1E1E1E1E1E1E1E1E1E2E1E1E1E1E1E1E1E1E1E1
310
E1E1E1E1E1E1E1E1E1E1E1E1E1E1E1E1E1E1E1E1E1E1E1E1E1E1E1E1E1E1E1E1E1E1E1E1E1E1E1E1E1E1E1E1E1E1E1E1E1E1E1E1E1E1E1E1E1E1E1E2E1E1E1E1E1E1E1E1E1E1E1E1E1E1E1E1E1E1E1E1E1E1E1E1E1E1E1E1E1E1E1E1E1E1E1E1E1E1E1E1E1E1E1E1E1E1E1E1E2E1E1E1E1E1E1E1E1E1E1E1E1E1E1E1E2E1E1
310
E1E1E1E1E1E1E1E1E1E1E1E1E1E1E1E1E1E1E1E1E1E1E1E1E1E1E1E2E1E1E1E1E1E1E1E1E1E1E1E1E1E1E1E1E1E1E1E1E1E1E1E1E1E1E1E1E1E1E1E1E1E1E1E1E1E1E1E1E1E1E2E2E1E1E1E1E1E1E1E1E2E2E1E1E1E1E1E1E1E1E1E1E1E1E1E1E1E1E1E1E1E1E1E1E1E1E1E1E1E1E1E1E1E1E1E1E1E1E2E1E1E1E1E1E1E1E1
310
E1E1E1E1E1E1E1E1E1E1E1E1E1E1E1E1E1E1E1E1E1E1E1E1E1E1E1E1E1E1E1E1E1E1E1E1E1E1E1E1E1E1E1E1E1E1E1E1E1E1E1E1E1E1E1E1E2E2E1E2E2E2E1E1E1E1E1E1E1E1E1E1E1E1E1E1E1E1E1E1E1E1E1E1E1E1E1E1E1E1E1E1E1E1E1E1E1E1E1E1E1E1E1E1E1E1E1E1E1E1E2E1E1E1E1E1E1E1E1E1E1E1E1E1E1E1E2
310
E1E1E1E1E1E1E1E1E1E1E1E1E1E1E1E1E1E1E1E1E1E1E1E1E1E1E1E1E1E2E1E1E1E1E1E1E1E1E1E1E1E1E1E1E1E1E1E1E1E1E1E1E1E1E1E1E1E1E1E1E1E1E1E1E1E1E1E1E1E1E1E1E2E2E1E1E1E1E1E1E1E1E2E2E1E1E1E1E1E1E1E1E1E1E1E1E1E1E1E1E1E1E1E1E1E1E1E1E1E1E1E1E1E1E1E1E1E1E1E1E2E1E1E1E1E1E1
310
E1E1E1E1E1E1E1E1E1E1E1E1E1E1E1E1E1E1E1E1E1E1E1E1E1E1E1E1E1E1E1E1E1E1E1E1E1E1E1E1E1E1E1E1E1E1E1E1E1E1E1E1E1E1E1E1E1E1E2E2E2E2E2E2E1E1E1E1E1E1E1E1E1E1E1E1E1E1E1E1E1E1E1E1E1E1E1E1E1E1E1E1E1E1E1E1E1E1E1E1E1E1E1E1E1E1E1E1E1E1E1E1E2E1E1E1E1E1E1E1E1E1E1E1E1E1E1
310
E1E2E1E1E1E1E1E1E1E1E1E1E1E1E1E1E1E1E1E1E1E1E1E1E1E1E1E1E1E1E1E2E1E1E1E1E1E1E1E1E1E1E1E1E1E1E1E1E1E1E1E1E1E1E1E1E1E1E1E1E1E1E1E1E1E1E1E1E1E1E1E1E1E1E1E2E1E1E1E1E1E1E1E1E2E1E1E1E1E1E1E1E1E1E1E1E1E1E1E1E1E1E1E1E1E1E1E1E1E1E1E1E1E1E1E1E1E1E1E1E1E1E2E1E1E1E1
310
E1E1E1E1E1E1E1E1E1E1E1E1E1E1E1E1E1E1E1E1E1E1E1E1E1E1E1E1E1E1E1E1E1E1E1E1E1E1E1E1E1E1E1E1E1E1E1E1E1E1E1E1E1E1E1E1E1E1E1E1E1E1E1E1E1E2E1E1E1E1E1E1E1E1E1E1E1E1E1E1E1E1E1E1E1E1E1E1E1E1E1E1E1E1E1E1E1E1E1E1E1E1E1E1E1E1E1E1E1E1E1E1E1E1E2E1E1E1E1E1E1E1E1E1E1E1E1
310
E1E1E1E2E1E1E1E1E1E1E1E1E1E1E1E1E1E1E1E1E1E1E1E1E1E1E1E1E1E1E1E1E1E2E1E1E1E1E1E1E1E1E1E1E1E1E1E1E1E1E1E1E1E1E1E1E1E1E1E1E1E1E1E1E1E1E1E1E1E1E1E1E1E1E1E1E1E2E2E2E2E2E2E2E2E2E2E1E1E1E1E1E1E1E1E1E1E1E1E1E1E1E1E1E1E1E1E1E1E1E1E1E1E1E1E1E1E1E1E1E1E1E1E1E2E1E1
310
E1E1E1E1E1E1E1E1E1E1E1E1E1E1E1E1E1E1E1E1E1E1E1E1E1E1E1E1E1E1E1E1E1E1E1E1E1E1E1E1E1E1E1E1E1E1E1E1E1E1E1E1E1E1E1E1E1E1E1E1E1E1F0E2E2E2E2E2E1E1E1E1E1E1E1E1E1E1E1E1E1E1E1E1E1E1E1E1E1E1E1E1E1E1E1E1E1E1E1E1E1E1E1E1E1E1E1E1E1E1E1E1E1E1E1E1E2E1E1E1E1E1E1E1E1E1E1
310
E1E1E1E1E1E2E1E1E1E1E1E1E1E1E1E1E1E1E1E1E1E1E1E1E1E1E1E1E1E1E1E1E1E1E1E2E1E1E1E1E1E1E1E1E1E1E1E1E1E1E1E1E1E1E1E1E1E1E1E1E1E1E1E1E1E1E1E1E1E1E1E1E1E1E1E1E1E1E1E1E1E1E1E1E1E1E1E1E1E1E1E1E1E1E1E1E1E1E1E1E1E1E1E1E1E1E1E1E1E1E1E1E1E1E1E1E1E1E1E1E1E1E1E1E1E1E2
310
E1E1E1E1E1E1E1E1E1E1E1E1E1E1E1E1E1E1E1E1E1E1E1E1E1E1E1E1E1E1E1E1E1E1E1E1E1E1E1E1E1E1E1E1E1E1E1E1E1E1E1E1E1E1E1E1E1E1E1E1E1E1E1E1E1E1E1E1E1E1E1E1E1E1E1E1E1E1E1E1E1E1E1E1E1E1E1E1E1E1E1E1E1E1E1E1E1E1E1E1E1E1E1E1E1E1E1E1E1E1E1E1E1E1E1E1E1E1E2E1E1E1E1E1E1E1E1
310
E1E1E1E1E1E1E1E2E1E1E1E1E1E1E1E1E1E1E1E1E1E1E1E1E1E1E1E1E1E1E1E1E1E1E1E1E1E2E1E1E1E1E1E1E1E1E1E1E1E1E1E1E1E1E1E1E1E1E1E1E1E1E1E1E1E1E1E1E1E1E1E1E1E1E1E1E1E1E1E1E1E1E1E1E1E1E1E1E1E1E1E1E1E1E1E1E1E1E1E1E1E1E1E1E1E1E1E1E1E1E1E1E1E1E1E1E1E1E1E1E1E1E1E1E1E1E1
310
E1E2E1E1E1E1E1E1E1E1E1E1E1E1E1E1E1E1E1E1E1E1E1E1E1E1E1E1E1E1E1E1E1E1E1E1E1E1E1E1E1E1E1E1E1E1E1E1E1E1E1E1E1E1E1E1E1E1E1E1E1E1E1E1E1E1E1E1E1E1E1E1E1E1E1E1E1E1E1E1E1E1E1E1E1E1E1E1E1E1E1E1E1E1E1E1E1E1E1E1E1E1E1E1E1E1E1E1E1E1E1E1E1E1E1E1E1E1E1E1E2E1E1E1E1E1E1
310
E1E1E1E1E1E1E1E1E1E2E1E1E1E1E1E1E1E1E1E1E1E1E1E1E1E1E1E1E1E1E1E1E1E1E1E1E1E1E1E2E1E1E1E1E1E1E1E1E1E1E1E1E1E1E1E1E1E1E1E1E1E1E1E1E1E1E1E1E1E1E1E1E1E1E1E1E1E1E1E1E1E1E1E1E1E1E1E1E1E1E1E1E1E1E1E1E1E1E1E1E1E1E1E1E1E1E1E1E1E1E1E1E1E1E1E1E1E1E1E1E1E1E1E1E1E1E1
310
E1E1E1E2E1E1E1E1E1E1E1E1E1E1E1E1E1E1E1E1E1E1E1E1E1E1E1E1E1E1E1E1E1E1E1E1E1E1E1E1E1E1E1E1E1E1E1E1E1E1E1E1E1E1E1E1E1E1E1E1E1E1E1E1E1E1E1E1E1E1E1E1E1E1E1E1E1E1E1E1E1E1E1E1E1E1E1E1E1E1E1E1E1E1E1E1E1E1E1E1E1E1E1E1E1E1E1E1E1E1E1E1E1E1E1E1E1E1E1E1E1E1E2E1E1E1E1
310
E1E1E1E1E1E1E1E1E1E1E1E2E1E1E1E1E1E1E1E1E1E1E1E1E1E1E1E1E1E1E1E1E1E1E1E1E1E1E1E1E1E2E1E1E1E1E1E1E1E1E1E1E1E1E1E1E1E1E1E1E1E1E1E1E1E1E1E1E1E1E1E1E1E1E1E1E1E1E1E1E1E1E1E1E1E1E1E1E1E1E1E1E1E1E1E1E1E1E1E1E1E1E1E1E1E1E1E1E1E1E1E1E1E1E1E1E1E1E1E1E1E1E1E1E1E1E1
310
E1E1E1E1E1E2E1E1E1E1E1E1E1E1E1E1E1E1E1E1E1E1E1E1E1E1E1E1E1E1E1E1E1E1E1E1E1E1E1E1E1E1E1E1E1E1E1E1E1E1E1E1E1E1E1E1E1E1E1E1E1E1E1E1E1E1E1E1E1E1E1E1E1E1E1E1E1E1E1E1E1E1E1E1E1E1E1E1E1E1E1E1E1E1E1E1E1E1E1E1E1E1E1E1E1E1E1E1E1E1E1E1E1E1E1E1E1E1E1E1E1E1E1E1E2E1E1
310
E1E1E1E1E1E1E1E1E1E1E1E1E1E2E1E1E1E1E1E1E1E1E1E1E1E1E1E1E1E1E1E1E1E1E1E1E1E1E1E1E1E1E1E2E1E1E1E1E1E1E1E1E1E1E1E1E1E1E1E1E1E1E1E1E1E1E1E1E1E1E1E1E1E1E1E1E1E1E1E1E1E1E1E1E1E1E1E1E1E1E1E1E1E1E1E1E1E1E1E1E1E1E1E1E1E1E1E1E1E1E1E1E1E1E1E1E1E1E1E1E1E1E1E1E1E1E1
310
E1E1E1E1E1E1E1E2E1E1E1E1E1E1E1E1E1E1E1E1E1E1E1E1E1E1E1E1E1E1E1E1E1E1E1E1E1E1E1E1E1E1E1E1E1E1E1E1E1E1E1E1E1E1E1E1E1E1E1E1E1E1E1E1E1E1E1E1E1E1E1E1E1E1E1E1E1E1E1E1E1E1E1E1E1E1E1E1E1E1E1E1E1E1E1E1E1E1E1E1E1E1E1E1E1E1E1E1E1E1E1E1E1E1E1E1E1E1E1E1E1E1E1E1E1E1E2
310
E1E1E1E1E1E1E1E1E1E1E1E1E1E1E1E2E1E1E1E1E1E1E1E1E1E1E1E1E1E1E1E1E1E1E1E1E1E1E1E1E1E1E1E1E1E2E1E1E1E1E1E1E1E1E1E1E1E1E1E1E1E1E1E1E1E1E1E1E1E1E1E1E1E1E1E1E1E1E1E1E1E1E1E1E1E1E1E1E1E1E1E1E1E1E1E1E1E1E1E1E1E1E1E1E1E1E1E1E1E1E1E1E1E1E1E1E1E1E1E1E1E1E1E1E1E1E1
310
E1E1E1E1E1E1E1E1E1E2E1E1E1E1E1E1E1E1E1E1E1E1E1E1E1E1E1E1E1E1E1E1E1E1E1E1E1E1E1E1E1E1E1E1E1E1E1E1E1E1E1E1E1E1E1E1E1E1E1E1E1E1E1E1E1E1E1E1E1E1E1E1E1E1E1E1E1E1E1E1E1E1E1E1E1E1E1E1E1E1E1E1E1E1E1E1E1E1E1E1E1E1E1E1E1E1E1E1E1E1E1E1E1E1E1E1E1E1E1E1E1E1E1E1E1E1E1
310
E1E2E1E1E1E1E1E1E1E1E1E1E1E1E1E1E1E2E1E1E1E1E1E1E1E1E1E1E1E1E1E1E1E1E1E1E1E1E1E1E1E1E1E1E1E1E1E2E1E1E1E1E1E1E1E1E1E1E1E1E1E1E1E1E1E1E1E1E1E1E1E1E1E1E1E1E1E1E1E2E2E1E1E1E1E1E1E1E1E1E2E2E1E1E1E1E1E1E1E1E2E2E1E1E1E1E1E1E1E1E1E1E1E1E1E1E1E1E1E1E1E1E1E1E1E1E1
310
E1E1E1E1E1E1E1E1E1E1E1E2E1E1E1E1E1E1E1E1E1E1E1E1E1E1E1E1E1E1E1E1E1E1E1E1E1E1E1E1E1E1E1E1E1E1E1E1E1E1E1E1E1E1E1E1E1E1E1E1E1E1E1E1E1E1E1E1E1E1E1E1E1E1E1E1E1E1E1E1E1E1E1E1E1E1E1E1E1E1E1E1E1E1E1E1E1E1E1E1E1E1E1E1E1E1E1E1E1E1E1E1E1E1E1E1E1E1E1E1E1E1E1E1E1E1E1
310
E1E1E1E2E1E1E1E1E1E1E1E1E1E1E1E1E1E1E1E2E1E1E1E1E1E1E1E1E1E1E1E1E1E1E1E1E1E1E1E1E1E1E1E1E1E1E1E1E1E2E1E1E1E1E1E1E1E1E1E1E1E1E1E1E1E1E1E1E1E1E1E1E1E1E1E1E1E1E1E1E1E2E2E1E1E1E1E1E1E1E1E1E2E2E1E1E1E1E1E1E1E1E2E2E1E1E1E1E1E1E1E1E1E1E1E1E1E1E1E1E1E1E1E1E1E1E1
310
E1E1E1E1E1E1E1E1E1E1E1E1E1E2E1E1E1E1E1E1E1E1E1E1E1E1E1E1E1E1E1E1E1E1E1E1E1E1E1E1E1E1E1E1E1E1E1E1E1E1E1E1E1E1E1E1E1E1E1E1E1E1E1E1E1E1E1E1E1E1E1E1E1E1E1E1E1E1E1E1E1E1E1E1E1E1E1E1E1E1E1E1E1E1E1E1E1E1E1E1E1E1E1E1E1E1E1E1E1E1E1E1E1E1E1E1E1E1E1E1E1E1E1E1E1E1E1
310
E1E1E1E1E1E2E1E1E1E1E1E1E1E1E1E1E1E1E1E1E1E2E1E1E1E1E1E1E1E1E1E1E2E2E1E1E1E1E1E1E1E1E1E1E1E1E1E1E1E1E1E2E1E1E1E1E1E1E1E1E1E1E1E1E1E1E1E1E1E1E1E1E1E1E1E1E1E1E1E1E1E1E1E2E2E1E1E1E1E1E1E1E1E1E2E2E1E1E1E1E1E1E1E1E2E2E1E1E1E1E1E1E1E1E1E1E1E1E1E1E1E1E1E1E1E1E1
310
E1E1E1E1E1E1E1E1E1E1E1E1E1E1E1E2E1E1E1E1E1E1E1E1E1E1E1E1E1E1E1E1E1E1E1E1E1E1E1E1E1E1E1E1E1E1E1E1E1E1E1E1E1E1E1E1E1E1E1E1E1E1E1E1E1E1E1E1E1E1E1E1E1E1E1E1E1E1E1E1E1E1E1E1E1E1E1E1E1E1E1E1E1E1E1E1E1E1E1E1E1E1E1E1E1E1E1E1E1E1E1E1E1E1E1E1E1E1E1E1E1E1E1E1E1E1E1
310
E1E1E1E1E1E1E1E2E1E1E1E1E1E1E1E1E1E1E1E1E1E1E1E2E1E1E1E1E1E1E1E1E1E1E2E2E1E1E1E1E1E1E1E1E1E1E1E1E1E1E1E1E1E2E1E1E1E1E1E1E1E1E1E1E1E1E1E1E1E1E1E1E1E1E1E1E1E1E1E1E1E1E1E1E1E2E2E1E1E1E1E1E1E1E1E1E2E2E1E1E1E1E1E1E1E1E2E2E1E1E1E1E1E1E1E1E1E1E1E1E1E1E1E1E1E1E1
310
E1E1E1E1E1E1E1E1E1E1E1E1E1E1E1E1E1E2E1E1E1E1E1E1E1E1E1E1E1E1E1E1E1E1E1E1E1E1E1E1E1E1E1E1E1E1E1E1E1E1E1E1E1E1E1E1E1E1E1E1E1E1E1E1E1E1E1E1E1E1E1E1E1E1E1E1E1E1E1E1E1E1E1E1E1E1E1E1E1E1E1E1E1E1E1E1E1E1E1E1E1E1E1E1E1E1E1E1E1E1E1E1E1E1E1E1E1E1E1E1E1E1E1E1E1E1E1
310
E1E1E1E1E1E1E1E1E1E2E1E1E1E1E1E1E1E1E1E1E1E1E1E1E1E2E1E1E1E1E1E1E1E1E1E1E2E2E1E1E1E1E1E1E1E1E1E1E1E1E1E1E1E1E1E2E1E1E1E1E1E1E1E1E1E1E1E1E1E1E1E1E1E1E1E1E1E1E1E1E1E1E1E1E1E1E1E2E2E1E1E1E1E1E1E1E1E1E2E2E1E1E1E1E1E1E1E1E2E2E1E1E1E1E1E1E1E1E1E1E1E1E1E1E1E1E1
310
E1E1E1E1E1E1E1E1E1E1E1E1E1E1E1E1E1E1E1E2E1E1E1E1E1E1E1E1E1E1E1E1E1E1E1E1E1E1E1E1E1E1E1E1E1E1E1E1E1E1E1E1E1E1E1E1E1E1E1E1E1E1E1E1E1E1E1E1E1E1E1E1E1E1E1E1E1E1E1E1E1E1E1E1E1E1E1E1E1E1E1E1E1E1E1E1E1E1E1E1E1E1E1E1E1E1E1E1E1E1E1E1E1E1E1E1E1E1E1E1E1E1E1E1E1E1E1
310
E1E1E1E1E1E1E1E1E1E1E1E2E1E1E1E1E1E1E1E1E1E1E1E1E1E1E1E2E1E1E1E1E1E1E1E1E1E1E2E2E1E1E1E1E1E1E1E1E1E1E1E1E1E1E1E1E1E2E1E1E1E1E1E1E1E1E1E1E1E1E1E1E1E1E1E1E1E1E1E1E1E1E1E1E1E1E1E1E1E2E2E1E1E1E1E1E1E1E1E1E2E2E1E1E1E1E1E1E1E1E2E2E1E1E1E1E1E1E1E1E1E1E1E1E1E1E1
310
E1E1E1E1E1E1E1E1E1E1E1E1E1E1E1E1E1E1E1E1E1E2E1E1E1E1E1E1E1E1E1E1E1E1E1E1E1E1E1E1E1E1E1E1E1E1E1E1E1E1E1E1E1E1E1E1E1E1E1E1E1E1E1E1E1E1E1E1E1E1E1E1E1E1E1E1E1E1E1E1E1E1E1E1E1E1E1E1E1E1E1E1E1E1E1E1E1E1E1E1E1E1E1E1E1E1E1E1E1E1E1E1E1E1E1E1E1E1E1E1E1E1E1E1E1E1E1
310
E1E1E1E1E1E1E1E1E1E1E1E1E1E2E1E1E1E1E1E1E1E1E1E1E1E1E1E1E1E2E1E1E1E1E1E1E1E1E1E1E2E2E1E1E1E1E1E2E2E1E1E1E1E1E1E1E1E1E1E2E1E1E1E1E1E1E1E1E1E1E1E1E1E1E1E1E1E1E1E1E1E1E1E1E1E1E1E1E1E1E1E2E2E1E1E1E1E1E1E1E1E1E2E2E1E1E1E1E1E1E1E1E2E2E1E1E1E1E1E1E1E1E1E1E1E1E1
310
E1E1E1E1E1E1E1E1E1E1E1E1E1E1E1E1E1E1E1E1E1E1E1E2E1E1E1E1E1E1E1E1E1E1E1E1E1E1E1E1E1E1E1E1E1E1E1E1E1E1E1E1E1E1E1E1E1E1E1E1E1E1E1E1E1E1E1E1E1E1E1E1E1E1E1E1E1E1E1E1E1E1E1E1E1E1E1E1E1E1E1E1E1E1E1E1E1E1E1E1E1E1E1E1E1E1E1E1E1E1E1E1E1E1E1E1E1E1E1E1E1E1E1E1E1E1E1
310
E1E1E1E1E1E1E1E1E1E1E1E1E1E1E1E2E1E1E1E1E1E1E1E1E1E1E1E1E1E1E1E2E1E1E1E1E1E1E1E1E1E1E2E2E1E1E1E1E1E2E2E1E1E1E1E1E1E1E1E1E1E2E1E1E1E1E1E1E1E1E1E1E1E1E1E1E1E1E1E1E1E1E1E1E1E1E1E1E1E1E1E1E1E2E2E1E1E1E1E1E1E1E1E1E2E2E1E1E1E1E1E1E1E1E2E2E1E1E1E1E1E1E1E1E1E1E1
310
E1E1E1E1E1E1E1E1E1E1E1E1E1E1E1E1E1E1E1E1E1E1E1E1E1E2E1E1E1E1E1E1E1E1E1E1E1E1E1E1E1E1E1E1E1E1E1E1E1E1E1E1E1E1E1E1E1E1E1E1E1E1E1E1E1E1E1E1E1E1E1E1E1E1E1E1E1E1E1E1E1E1E1E1E1E1E1E1E1E1E2E2E2E2E2E2E1E1E1E1E1E1E1E1E1E1E1E1E1E2E2F0E2F0E2E2E1E1E1E1E1E1E1E1E1E1E1
310
E1E1E1E1E1E1E1E1E1E1E1E1E1E1E1E1E1E2E1E1E1E1E1E1E1E1E1E1E1E1E1E1E1E2E1E1E1E1E1E1E1E1E1E1E2E2E1E1E1E1E1E2E2E1E1E1E1E1E1E1E1E1E1E2E1E1E1E1E1E1E1E1E1E1E1E1E1E1E1E1E1E1E1E1E1E1E1E1E1E1E1E1E1E1E1E2E2E1E1E1E1E1E1E1E1E1E2E2E1E1E1E1E1E1E1E1E2E2E1E1E1E1E1E1E1E1E1
310
E1E1E1E1E1E1E1E1E1E1E1E1E1E1E1E1E1E1E1E1E1E1E1E1E1E1E1E2E1E1E1E1E1E1E1E1E1E1E1E1E1E1E1E1E1E1E1E1E1E1E1E1E1E1E1E1E1E1E1E1E1E1E1E1E1E1E1E1E1E1E1E1E1E1E1E1E1E1E1E1E1E1E1E1E1E1E1E1E1E1E1E1E1E1E1E2E2E1E1E1E1E1E1E1E1E1E1E1E1E1E1F0F0E1E1E1F0F0E1E1E1E1E1E1E1E1E1
310
E1E1E1E1E1E1E1E1E1E1E1E1E1E1E1E1E1E1E1E2E1E1E1E1E1E1E1E1E1E1E1E1E1E1E1E2E1E1E1E1E1E1E1E1E1E1E2E2E1E1E1E1E1E2E2E1E1E1E1E1E1E1E1E1E1E2E1E1E1E1E1E1E1E1E1E1E1E1E1E1E1E1E1E1E1E1E1E1E1E1E1E1E1E1E1E1E1E2E2E1E1E1E1E1E1E1E1E1E2E2E1E1E1E1E1E1E1E1E2E2E1E1E1E1E1E1E1
310
E1E1E1E1E1E1E1E1E1E1E1E1E1E1E1E1E1E1E1E1E1E1E1E1E1E1E1E1E1E2E1E1E1E1E1E1E1E1E1E1E1E1E1E1E1E1E1E1E1E1E1E1E1E1E1E1E1E1E1E1E1E1E1E1E1E1E1E1E1E1E1E1E1E1E1E1E1E1E1E1E1E1E1E1E1E1E1E1E1E1E1E1E1E1E1E2E2E1E1E1E1E1E1E1E1E1E1E1E1E1E1E1E1E2E2E1E2E2E2E2E1E1E1E1E1E1E1
310
E1E1E1E1E1E1E1E1E1E1E1E1E1E1E1E1E1E1E1E1E1E2E1E1E1E1E1E1E1E1E1E1E1E1E1E1E1E2E1E1E1E1E1E1E1E1E1E1E2E2E1E1E2E1E1E2E2E1E1E1E1E1E1E1E1E1E1E2E1E1E1E1E1E1E1E1E1E1E1E1E1E1E1E1E1E1E1E1E1E1E1E1E1E1E1E1E1E1E1E2E2E1E1E1E1E1E1E1E1E1E2E2E1E1E1E1E1E1E1E1E2E2E1E1E1E1E1
310
E1E1E1E1E1E1E1E1E1E1E1E1E1E1E1E1E1E1E1E1E1E1E1E1E1E1E1E1E1E1E1E2E1E1E1E1E1E1E1E1E1E1E1E1E1E1E1E1E1E1E1E1E1E1E1E1E1E1E1E1E1E1E1E1E1E1E1E1E1E1E1E1E1E1E1E1E1E1E1E1E1E1E1E1E1E1E1E1E1E1E1E1E1E1E1E1E2E1E1E1E1E1E1E1E1E1E1E1E1E1E1E1E1E1E1E2E2E2E2E2E2E2E1E1E1E1E1
310
E1E1E1E1E1E1E1E1E1E1E1E1E1E1E1E1E1E1E1E1E1E1E1E2E1E1E1E1E1E1E1E1E1E1E1E1E1E1E1E2E1E1E1E1E1E1E1E1E1E1E2E2E2E2E2E2E2E2E2E1E1E1E1E1E1E1E1E1E1E2E1E1E1E1E1E1E1E1E1E1E1E1E1E1E1E1E1E1E1E1E1E1E1E1E1E1E1E2E2E2E2E2E2E2E2E2E1E1E1E1E1E1E2E2E2E2E2E2E2E2E2E2E2E2E1E1E1
310
E1E1E1E1E1E1E1E1E1E1E1E1E1E1E1E1E1E1E1E1E1E1E1E1E1E1E1E1E1E1E1E1E1E2E1E1E1E1E1E1E1E1E1E1E1E1E1E1E1E1E1E1E1E1E1E1E1E1E1E1E1E1E1E1E1E1E1E1E1E1E1E1E1E1E1E1E1E1E1E1E1E1E1E1E1E1E1E1E1E1E1E1E1E1E1E1E1E1E1E1E1E1E1E1E1E1E1E1E1E1E1E1E1E1E1E1E1E2E2E1E1E1E2E2E1E1E1
310
E1E1E1E1E1E1E1E1E1E1E1E1E1E1E1E1E1E1E1E1E1E1E1E1E1E2E1E1E1E1E1E1E1E1E1E1E1E1E1E1E1E2E1E1E1E1E1E1E1E1E1E1E2E2E1E1E2E1E1E2E2E1E1E1E1E1E1E1E1E1E1E2E1E1E1E1E1E1E1E1E1E1E1E1E1E1E1E1E1E1E1E1E1E1E1E1E1E1E1E2E1E1E1E2E2E1E2E2E1E1E1E1E1E1E2E2E1E1E1E1E1E1E1E1E2E2E1
310
E1E1E1E1E1E1E1E1E1E1E1E1E1E1E1E1E1E1E1E1E1E1E1E1E1E1E1E1E1E1E1E1E1E1E1E2E1E1E1E1E1E1E1E1E1E1E1E1E1E1E1E1E1E1E1E1E1E1E1E1E1E1E1E1E1E1E1E1E1E1E1E1E1E1E1E1E1E1E1E1E1E1E1E1E1E1E1E1E1E1E1E1E1E1E1E1E1E1E1E1E1E1E1E1E1E1E1E1E1E1E1E1E1E1E1E1E1E1E1E1E2E2E2E2E2E1E1
310
E1E1E1E1E1E1E1E1E1E1E1E1E1E1E1E1E1E1E1E1E1E1E1E1E1E1E1E2E1E1E1E1E1E1E1E1E1E1E1E1E1E1E1E2E1E1E1E1E1E1E1E1E1E2E2E2E1E1E2E1E1E1E2E2E1E1E1E1E1E1E1E1E1E2E1E1E1E1E1E1E1E1E1E1E1E1E1E1E1E1E1E1E1E1E1E1E1E1E1E1E1E2E1E1E1E2E2E1E2E2E1E1E1E1E1E1E2E2E1E1E1E1E1E1E1E1E2
310
E2E1E1E1E1E1E1E1E1E1E1E1E1E1E1E1E1E1E1E1E1E1E1E1E1E1E1E1E1E1E1E1E1E1E1E1E1E2E1E1E1E1E1E1E1E1E1E1E1E1E1E1E1E1E1E1E1E1E1E1E1E1E1E1E1E1E1E1E1E1E1E1E1E1E1E1E1E1E1E1E1E1E1E1E1E1E1E1E1E1E1E1E1E1E1E1E1E1E1E1E1E1E1E1E1E1E1E1E1E1E1E1E1E1E1E1E1E1E1E1E1E1E1E1E1E1E1
310
E1E1E1E1E1E1E1E1E1E1E1E1E1E1E1E1E1E1E1E1E1E1E1E1E1E1E1E1E1E2E1E1E1E1E1E1E1E1E1E1E1E1E1E1E1E2E1E1E1E1E1E1E1E1E1E2E2E2E2E2E2E2E2E1E1E1E2E2E1E1E1E1E1E1E1E2E1E1E1E1E1E1E1E1E1E1E1E1E1E1E1E1E1E1E1E1E1E1E1E1E1E1E1E2E1E1E1E2E2E1E2E2E1E1E1E1E1E1E2E2E1E1E1E1E1E1E1
310
E1E2E2E1E1E1E1E1E1E1E1E1E1E1E1E1E1E1E1E1E1E1E1E1E1E1E1E1E1E1E1E1E1E1E1E1E1E1E1E2E1E1E1E1E1E1E1E1E1E1E1E1E1E1E1E1E1E1E1E1E1E1E1E1E1E1E1E1E1E1E1E1E1E1E1E1E1E1E1E1E1E1E1E1E1E1E1E1E1E1E1E1E1E1E1E1E1E1E1E1E1E1E1E1E1E1E1E1E1E1E1E1E1E1E1E1E1E1E1E1E1E1E1E1E1E1E1
310
E1E1E1E1E1E1E1E1E1E1E1E1E1E1E1E1E1E1E1E1E1E1E1E1E1E1E1E1E1E1E1E2E1E1E1E1E1E1E1E1E1E1E1E1E1E1E1E2E1E1E1E1E1E1E1E1E1E2E2E2E1E2E2E1E1E2E1E1E2E2E1E1E1E1E1E1E1E2E1E1E1E1E1E1E1E1E1E1E1E1E1E1E1E1E1E1E1E1E1E1E1E1E1E1E1E2E2E2E2E2E2E2E2E2E1E1E1E1E1E1E2E2E2E2E2E2E2
310
E2E2E2E2E2E1E1E1E1E1E1E1E1E1E1E1E1E1E1E1E1E1E1E1E1E1E1E1E1E1E1E1E1E1E1E1E1E1E1E1E1E2E1E1E1E1E1E1E1E1E1E1E1E1E1E1E1E1E1E1E1E1E1E1E1E1E1E1E1E1E1E1E1E1E1E1E1E1E1E1E1E1E1E1E1E1E1E1E1E1E1E1E1E1E1E1E1E1E1E1E1E1E1E1E1E1E1E1E1E1E1E1E1E1E1E1E1E1E1E1E1E1E1E1E1E1E1
310
E1E1E1E1E1E1E1E1E1E1E1E1E1E1E1E1E1E1E1E1E1E1E1E1E1E1E1E1E1E1E1E1E1E2E1E1E1E1E1E1E1E1E1E1E1E1E1E1E1E2E1E1E1E1E1E1E1E1E1E2E1E2E2E1E1E2E2E1E2E2E2E2E1E1E1E1E1E1E1E2E1E1E1E1E1E1E1E1E1E1E1E1E1E1E1E1E1E1E1E1E1E1E1E1E1E1E1E1E2E2E2E2E2E2E2E2E1E1E1E1E1E1E1E2E2E2E2
310
E2E2E2E2E2E2E1E1E1E1E1E1E1E1E1E1E1E1E1E1E1E1E1E1E1E1E1E1E1E1E1E1E1E1E1E1E1E1E1E1E1E1E1E2E1E1E1E1E1E1E1E1E1E1E1E1E1E1E1E1E1E1E1E1E1E1E1E1E1E1E1E1E1E1E1E1E1E1E1E1E1E1E1E1E1E1E1E1E1E1E1E1E1E1E1E1E1E1E1E1E1E1E1E1E1E1E1E1E1E1E1E1E1E1E1E1E1E1E1E1E1E1E1E1E1E1E1
310
E1E1E1E1E1E1E1E1E1E1E1E1E1E1E1E1E1E1E1E1E1E1E1E1E1E1E1E1E1E1E1E1E1E1E1E2E1E1E1E1E1E1E1E1E1E1E1E1E1E1E1E2E1E1E1E1E1E1E1E1E1E2E2E1E1E1E1E1E1E2E2E1E2E2E1E1E1E1E1E1E1E2E1E1E1E1E1E1E1E1E1E1E1E1E1E1E1E1E1E1E1E1E1E1E1E1E1E1E1E1E1E1E1E1E1E1E1E1E1E1E1E1E1E1E1E1E1
310
E1E1E1E1E1E1E1E1E1E1E1E1E1E1E1E1E1E1E1E1E1E1E1E1E1E1E1E1E1E1E1E1E1E1E1E1E1E1E1E1E1E1E1E1E1E2E1E1E1E1E1E1E1E1E1E1E1E1E1E1E1E1E1E1E1E1E1E1E1E1E1E1E1E1E1E1E1E1E1E1E1E1E1E1E1E1E1E1E1E1E1E1E1E1E1E1E1E1E1E1E1E1E1E1E1E1E1E1E1E1E1E1E1E1E1E1E1E1E1E1E1E1E1E1E1E1E1
310
E1E1E1E1E1E1E1E1E1E1E1E1E1E1E1E1E1E1E1E1E1E1E1E1E1E1E1E1E1E1E1E1E1E1E1E1E1E2E1E1E1E1E1E1E1E1E1E1E1E1E1E1E1E2E1E1E1E1E1E1E1E1E1E1E2E2E1E1E1E1E1E1E1E2E2E1E1E1E1E1E1E1E1E2E1E1E1E1E1E1E1E1E1E1E1E1E1E1E1E1E1E1E1E1E1E1E1E1E1E1E1E1E1E1E1E1E1E1E1E1E1E1E1E1E1E1E1
310
E1E1E1E1E1E1E1E1E1E1E1E1E1E1E1E1E1E1E1E1E1E1E1E1E1E1E1E1E1E1E1E1E1E1E1E1E1E1E1E1E1E1E1E1E1E1E1E2E1E1E1E1E1E1E1E1E1E1E1E1E1E1E1E1E1E1E1E1E1E1E1E1E1E1E1E1E1E1E1E1E1E1E1E1E1E1E1E1E1E1E1E1E1E1E1E1E1E1E1E1E1E1E1E1E1E1E1E1E1E1E1E1E1E1E1E1E1E1E1E1E1E1E1E1E1E1E1
310
E1E1E1E1E1E1E1E1E1E1E1E1E1E1E1E1E1E1E1E1E1E1E1E1E1E1E1E1E1E1E1E1E1E1E1E1E1E1E1E2E1E1E1E1E1E1E1E1E1E1E1E1E1E1E1E2E1E1E1E1E1E1E1E1E1E1E1E1E2E1E1E1E1E1E2E2E1E1E1E1E1E1E1E1E1E2E1E1E1E1E1E1E1E1E1E1E1E1E1E1E1E1E1E1E1E1E1E1E1E1E1E1E1E1E1E1E1E1E1E1E1E1E1E1E1E1E1
310
E1E1E1E1E1E1E1E1E1E1E1E1E1E1E1E1E1E1E1E1E1E1E1E1E1E1E1E1E1E1E1E1E1E1E1E1E1E1E1E1E1E1E1E1E1E1E1E1E1E2E1E1E1E1E1E1E1E1E1E1E1E1E1E1E1E1E1E1E1E1E1E1E1E1E1E1E1E1E1E1E1E1E1E1E1E1E1E1E1E1E1E1E1E1E1E1E1E1E1E1E1E1E1E1E1E1E1E1E1E1E1E1E1E1E1E1E1E1E1E1E1E1E1E1E1E1E1
310
E1E1E1E1E1E1E1E1E1E1E1E1E1E1E1E1E1E1E1E1E1E1E1E1E1E1E1E1E1E1E1E1E1E1E1E1E1E1E1E1E1E2E1E1E1E1E1E1E1E1E1E1E1E1E1E1E1E2E1E1E1E1E1E1E1E1E1E1E1E1E1E2E2E1E2E2E1E1E1E1E1E1E1E1E1E1E1E2E1E1E1E1E1E1E1E1E1E1E1E1E1E1E1E1E1E1E1E1E1E1E1E1E1E1E1E1E1E1E1E1E1E1E1E1E1E1E1
310
E1E1E1E1E1E1E1E1E1E1E1E1E1E1E1E1E1E1E1E1E1E1E1E1E1E1E1E1E1E1E1E1E1E1E1E1E1E1E1E1E1E1E1E1E1E1E1E1E1E1E1E2E1E1E1E1E1E1E1E1E1E1E1E1E1E1E1E1E1E1E1E1E1E1E1E1E1E1E1E1E1E1E1E1E1E1E1E1E1E1E1E1E1E1E1E1E1E1E1E1E1E1E1E1E1E1E1E1E1E1E1E1E1E1E1E1E1E1E1E1E1E1E1E1E1E1E1
310
E1E1E1E1E1E1E1E1E1E1E1E1E1E1E1E1E1E1E1E1E1E1E1E1E1E1E1E1E1E1E1E1E1E1E1E1E1E1E1E1E1E1E1E2E1E1E1E1E1E1E1E1E1E1E1E1E1E1E1E2E1E1E1E1E1E1E1E1E1E1E1E1E1E1E1E2E1E1E1E1E1E1E1E1E1E1E1E1E1E2E1E1E1E1E1E1E1E1E1E1E1E1E1E1E1E1E1E1E1E1E1E1E1E1E1E1E1E1E1E1E1E1E1E1E1E1E1
310
E1E1E1E1E1E1E1E1E1E1E1E1E1E1E1E1E1E1E1E1E1E1E1E1E1E1E1E1E1E1E1E1E1E1E1E1E1E1E1E1E1E1E1E1E1E1E1E1E1E1E1E1E1E2E1E1E1E1E1E1E1E1E1E1E1E1E1E1E1E1E1E1E1E1E1E1E1E1E1E1E1E1E1E1E1E1E1E1E1E1E1E1E1E1E1E1E1E1E1E1E1E1E1E1E1E1E1E1E1E1E1E1E1E1E1E1E1E1E1E1E1E1E1E1E1E1E1
310
E1E1E1E1E1E1E1E1E1E1E1E1E1E1E1E1E1E1E1E1E1E1E1E1E1E1E1E1E1E1E1E1E1E1E1E1E1E1E1E1E1E1E1E1E1E2E1E1E1E1E1E1E1E1E1E1E1E1E1E1E1E2E1E1E1E1E1E1E1E1E1E1E1E1E1E1E1E1E1E1E1E1E1E1E1E1E1E1E1E1E1E2E1E1E1E1E1E1E1E1E1E1E1E1E1E1E1E1E1E1E1E1E1E1E1E1E1E1E1E1E1E1E1E1E1E1E1
310
E1E1E1E1E1E1E1E1E1E1E1E1E1E1E1E1E1E1E1E1E1E1E1E1E1E1E1E1E1E1E1E1E1E1E1E1E1E1E1E1E1E1E1E1E1E1E1E1E1E1E1E1E1E1E1E2E1E1E1E1E1E1E1E1E1E1E1E1E1E1E1E1E1E1E1E1E1E1E1E1E1E1E1E1E1E1E1E1E1E1E1E1E1E1E1E1E1E1E1E1E1E1E1E1E1E1E1E1E1E1E1E1E1E1E1E1E1E1E1E1E1E1E1E1E1E1E1
310
E1E1E1E1E1E1E1E1E1E1E1E1E1E1E1E1E1E1E1E1E1E1E1E1E1E1E1E1E1E1E1E1E1E1E1E1E1E1E1E1E1E1E1E1E1E1E1E2E1E1E1E1E1E1E1E1E1E1E1E1E1E1E1E2E1E1E1E1E1E1E1E1E1E1E1E1E1E1E1E1E1E1E1E1E1E1E1E1E1E1E1E1E1E2E1E1E1E1E1E1E1E1E1E1E1E1E1E1E1E1E1E1E1E1E1E1E1E1E1E1E1E1E1E1E1E1E1
310
E1E1E1E1E1E1E1E1E1E1E2E2E2E2E2E2E2E2E2E2E1E1E1E1E1E1E1E1E1E1E1E1E1E1E1E1E1E1E1E1E1E1E1E1E1E1E1E1E1E1E1E1E1E1E1E1E1E2E1E1E1E1E1E1E1E1E1E1E1E1E1E1E1E1E1E1E1E1E1E1E1E1E1E1E1E1E1E1E1E1E1E1E1E1E1E1E1E1E1E1E1E1E1E1E1E1E1E1E1E1E1E1E1E1E1E1E1E1E1E1E1E1E1E1E1E1E1
310
E1E1E1E1E1E1E1E1E1E1E1E1E1E1E1E1E1E1E1E1E1E1E1E1E1E1E1E1E1E1E1E1E1E1E1E1E1E1E1E1E1E1E1E1E1E1E1E1E1E2E1E1E1E1E1E1E1E1E1E1E1E1E1E1E1E2E1E1E1E1E1E1E1E1E1E1E1E1E1E1E1E1E1E1E1E1E1E1E1E1E1E1E1E1E1E2E1E1E1E1E1E1E1E1E1E1E1E1E1E1E1E1E1E1E1E1E1E1E1E1E1E1E1E1E1E1E1
310
E1E1E1E1E1E1E1E1E1E1E1E1E2E2E2E2E2E2E2E2E2E2E1E1E1E1E1E1E1E1E1E1E1E1E1E1E1E1E1E1E1E1E1E1E1E1E1E1E1E1E1E1E1E1E1E1E1E1E1E2E1E1E1E1E1E1E1E1E1E1E1E1E1E1E1E1E1E1E1E1E1E1E1E1E1E1E1E1E1E1E1E1E1E1E1E1E1E1E1E1E1E1E1E1E1E1E1E1E1E1E1E1E1E1E1E1E1E1E1E1E1E1E1E1E1E1E1
310
E1E1E1E1E1E1E1E1E1E1E1E1E1E1E1E1E1E1E1E1E1E1E1E1E1E1E1E1E1E1E1E1E1E1E1E1E1E1E1E1E1E1E1E1E1E1E1E1E1E1E1E2E1E1E1E1E1E1E1E1E1E1E1E1E1E1E1E2E1E1E1E1E1E1E1E1E1E1E1E1E1E1E1E1E1E1E1E1E1E1E1E1E1E1E1E1E1E2E1E1E1E1E1E1E1E1E1E1E1E1E1E1E1E1E1E1E1E1E1E1E1E1E1E1E1E1E1
310
E1E1E1E1E1E1E1E1E1E1E1E1E1E2E2E1E1E1E1E1E1E1E1E2E2E1E1E1E1E1E1E1E1E1E1E1E1E1E1E1E1E1E1E1E1E1E1E1E1E1E1E1E1E1E1E1E1E1E1E1E1E2E1E1E1E1E1E1E1E1E1E1E1E1E1E1E1E1E1E1E1E1E1E1E1E1E1E1E1E1E1E1E1E1E1E1E1E1E1E1E1E1E1E1E1E1E1E1E1E1E1E1E1E1E1E1E1E1E1E1E1E1E1E1E1E1E1
310
E1E1E1E1E1E1E1E1E1E1E1E1E1E1E1E1E1E1E1E1E1E1E1E1E1E1E1E1E1E1E1E1E1E1E1E1E1E1E1E1E1E1E1E1E1E1E1E1E1E1E1E1E1E2E1E1E1E1E1E1E1E1E1E1E1E1E1E1E1E2E1E1E1E1E1E1E1E1E1E1E1E1E1E1E1E1E1E1E1E1E1E1E1E1E1E1E1E1E1E2E1E1E1E1E1E1E1E1E1E1E1E1E1E1E1E1E1E1E1E1E1E1E1E1E1E1E1
310
E1E1E1E1E1E1E1E1E1E1E1E1E1E1E1E2E2E1E1E1E1E1E1E1E1E2E2E1E1E1E1E1E1E1E1E1E1E1E1E1E1E1E1E1E1E1E1E1E1E1E1E1E1E1E1E1E1E1E1E1E1E1E1E2E1E1E1E1E1E1E1E1E1E1E1E1E1E1E1E1E1E1E1E1E1E1E1E1E1E1E1E1E1E1E1E1E1E1E1E1E1E1E1E1E1E1E1E1E1E1E1E1E1E1E1E1E1E1E1E1E1E1E1E1E1E1E1
310
E1E1E1E1E1E1E1E1E1E1E1E1E1E1E1E1E1E1E1E1E1E1E1E1E1E1E1E1E1E1E1E1E1E1E1E1E1E1E1E1E1E1E1E1E1E1E1E1E1E1E1E1E1E1E1E2E1E1E1E1E1E1E1E1E1E1E1E1E1E1E1E2E1E1E1E1E1E1E1E1E1E1E1E1E1E1E1E1E1E1E1E1E1E1E1E1E1E1E1E1E1E2E1E1E1E1E1E1E1E1E1E1E1E1E1E1E1E1E1E1E1E1E1E1E1E1E1
310
E1E1E1E1E1E1E1E1E1E1E1E1E1E1E1E1E1E1E2E1E1E1E1E1E1E1E1E2E1E1E1E1E1E1E1E1E1E1E1E1E1E1E1E1E1E1E1E1E1E1E1E1E1E1E1E1E1E1E1E1E1E1E1E1E1E2E1E1E1E1E1E1E1E1E1E1E1E1E1E1E1E1E1E1E1E1E1E1E1E1E1E1E1E1E1E1E1E1E1E1E1E1E1E1E1E1E1E1E1E1E1E1E1E1E1E1E1E1E1E1E1E1E1E1E1E1E1
310
E1E1E1E2E2E2E2E2E2E1E1E1E1E1E1E1E1E1E1E1E1E1E1E1E1E1E1E1E1E1E1E1E1E1E1E1E1E1E1E1E1E1E1E1E1E1E1E1E1E1E1E1E1E1E1E1E1E2E1E1E1E1E1E1E1E1E1E1E1E1E1E1E1E2E1E1E1E1E1E1E1E1E1E1E1E1E1E1E1E1E1E1E1E1E1E1E1E1E1E1E1E1E1E2E1E1E1E1E1E1E1E1E1E1E1E1E1E1E1E1E1E1E1E1E1E1E1
310
E1E1E1E1E1E1E1E1E1E1E1E1E1E1E1E1E1E1E1E1E2E1E1E1E1E1E1E1E1E2E1E1E1E1E1E1E1E1E1E1E1E1E1E1E1E1E1E1E1E1E1E1E1E1E1E1E1E1E1E1E1E1E1E1E1E1E1E2E1E1E1E1E1E1E1E1E1E1E1E1E1E1E1E1E1E1E1E1E1E1E1E1E1E1E1E1E1E1E1E1E1E1E1E1E1E1E1E1E1E1E1E1E1E1E1E1E1E1E1E1E1E1E1E1E1E1E1
310
E1E1E1E1E1E1E1E1E1E1E2E1E1E1E1E1E1E1E1E1E1E1E1E1E1E1E1E1E1E1E1E1E1E1E1E1E1E1E1E1E1E1E1E1E1E1E1E1E1E1E1E1E1E1E1E1E1E1E1E2E1E1E1E1E1E1E1E1E1E1E1E1E1E1E1E2E1E1E1E1E1E1E1E1E1E1E1E1E1E1E1E1E1E1E1E1E1E1E1E1E1E1E1E1E1E2E1E1E1E1E1E1E1E1E1E1E1E1E1E1E1E1E1E1E1E1E1
310
E1E1E1E1E1E1E1E1E1E1E1E1E1E1E1E1E1E1E1E1E1E1E2E1E1E1E1E1E1E1E1E2E1E1E1E1E1E1E1E1E1E1E1E1E1E1E1E1E1E1E1E1E1E1E1E1E1E1E1E1E1E1E1E1E1E1E1E1E1E2E1E1E1E1E1E1E1E1E1E1E1E1E1E1E1E1E1E1E1E1E1E1E1E1E1E1E1E1E1E1E1E1E1E1E1E1E1E1E1E1E1E1E1E1E1E1E1E1E1E1E1E1E1E1E1E1E1
310
E1E1E1E1E1E1E1E2E2E1E2E2E2E1E1E1E1E1E1E1E1E1E1E1E1E1E1E1E1E1E1E1E1E1E1E1E1E1E1E1E1E1E1E1E1E1E1E1E1E1E1E1E1E1E1E1E1E1E1E1E1E2E1E1E1E1E1E1E1E1E1E1E1E1E1E1E1E2E1E1E1E1E1E1E1E1E1E1E1E1E1E1E1E1E1E1E1E1E1E1E1E1E1E1E1E1E1E2E1E1E1E1E1E1E1E1E1E1E1E1E1E1E1E1E1E1E1
310
E1E1E1E1E1E1E1E1E1E1E1E1E1E1E1E1E1E1E1E1E1E1E1E1E2E1E1E1E1E1E1E1E1E2E1E1E1E1E1E1E1E1E1E1E1E1E1E1E1E1E1E1E1E1E1E1E1E1E1E1E1E1E1E1E1E1E1E1E1E1E1E2E1E1E1E1E1E1E1E1E1E1E1E1E1E1E1E1E1E1E1E1E1E1E1E1E1E1E1E1E1E1E1E1E1E1E1E1E1E1E1E1E1E1E1E1E1E1E1E1E1E1E1E1E1E1E1
310
E1E1E1E1E1E1E1E1E1E2E2E2E2E2E2E1E1E1E1E1E1E1E1E1E1E1E1E1E1E1E1E1E1E1E1E1E1E1E1E1E1E1E1E1E1E1E1E1E1E1E1E1E1E1E1E1E1E1E1E1E1E1E1E2E1E1E1E1E1E1E1E1E1E1E1E1E1E1E1E2E1E1E1E1E1E1E1E1E1E1E1E1E1E1E1E1E1E1E1E1E1E1E1E1E1E1E1E1E1E2E1E1E1E1E1E1E1E1E1E1E1E1E1E1E1E1E1
310
E1E1E1E1E1E1E1E1E1E1E1E1E1E1E1E1E1E1E1E1E1E1E1E1E1E1E2E2E2E2E2E2E2E2E2E2E1E1E1E1E1E1E1E1E1E1E1E1E1E1E1E1E1E1E1E1E1E1E1E1E1E1E1E1E1E1E1E1E1E1E1E1E1E2E1E1E1E1E1E1E1E1E1E1E1E1E1E1E1E1E1E1E1E1E1E1E1E1E1E1E1E1E1E1E1E1E1E1E1E1E1E1E1E1E1E1E1E1E1E1E1E1E1E1E1E1E1
310
E1E1E1E1E1E1E1E1E1E1E1E1E1E1E1E1E2E1E1E1E1E1E1E1E1E1E1E1E1E1E1E1E1E1E1E1E1E1E1E1E1E1E1E1E1E1E1E1E1E1E1E1E1E1E1E1E1E1E1E1E1E1E1E1E1E2E1E1E1E1E1E1E1E1E1E1E1E1E1E1E1E2E1E1E1E1E1E1E1E1E1E1E1E1E1E1E1E1E1E1E1E1E1E1E1E1E1E1E1E1E1E2E1E1E1E1E1E1E1E1E1E1E1E1E1E1E1
310
E1E1E1E1E1E1E1E1E1E1E1E1E1E1E1E1E1E1E1E1E1E1E1E1E1E1E1E1E1E1E1E1E1E1E1E1E1E1E1E1E1E1E1E1E1E1E1E1E1E1E1E1E1E1E1E1E1E1E1E1E1E1E1E1E1E1E1E1E1E1E1E1E1E1E1E2E1E1E1E1E1E1E1E1E1E1E1E1E1E1E1E1E1E1E1E1E1E1E1E1E1E1E1E1E1E1E1E1E1E1E1E1E1E1E1E1E1E1E1E1E1E1E1E1E1E1E1
310
E1E1E1E1E1E1E1E1E1E1E1E1E1E2E2E2E2E2E2E1E1E1E1E1E1E1E1E1E1E1E1E1E1E1E1E1E1E1E1E1E1E1E1E1E1E1E1E1E1E1E1E1E1E1E1E1E1E1E1E1E1E1E1E1E1E1E1E2E1E1E1E1E1E1E1E1E1E1E1E1E1E1E1E2E1E1E1E1E1E1E1E1E1E1E1E1E1E1E1E1E1E1E1E1E1E1E1E1E1E1E1E1E1E2E1E1E1E1E1E1E1E1E1E1E1E1E1
310
E1E1E1E1E1E1E1E1E1E1E1E1E1E1E1E1E1E1E1E1E1E1E1E1E1E1E1E1E1E1E1E1E1E1E1E1E1E1E1E1E1E1E1E1E1E1E1E1E1E1E1E1E1E1E1E1E1E1E1E1E1E1E1E1E1E1E1E1E1E1E1E1E1E1E1E1E1E2E1E1E1E1E1E1E1E1E1E1E1E1E1E1E1E1E1E1E1E1E1E1E1E1E1E1E1E1E1E1E1E1E1E1E1E1E1E1E1E1E1E1E1E1E1E1E1E1E1
310
E1E1E1E1E1E1E1E1E1E1E1E1E1E1E1E1E1E1E1E1E1E1E1E1E1E1E1E1E1E1E1E1E1E1E1E1E1E1E1E1E1E1E1E1E1E1E1E1E1E1E1E1E1E1E1E1E1E1E1E1E1E1E1E1E1E1E1E1E1E2E1E1E1E1E1E1E1E1E1E1E1E1E1E1E1E2E1E1E1E1E1E1E1E1E1E1E1E1E1E1E1E1E1E1E1E1E1E1E1E1E1E1E1E1E1E2E1E1E1E1E1E1E1E1E1E1E1
310
E1E1E1E1E1E1E1E1E1E1E1E1E1E1E1E1E1E1E1E1E1E1E1E1E1E1E1E1E1E1E1E1E1E1E1E1E1E1E1E1E1E1E1E1E1E1E1E1E1E1E1E1E1E1E1E1E1E1E1E1E1E1E1E1E1E1E1E1E1E1E1E1E1E1E1E1E1E1E1E2E1E1E1E1E1E1E1E1E1E1E1E1E1E1E1E1E1E1E1E1E1E1E1E1E1E1E1E1E1E1E1E1E1E1E1E1E1E1E1E1E1E1E1E1E1E1E1
310
E1E1E1E1E1E1E1E1E1E1E1E1E1E1E1E1E1E1E1E1E1E1E1E1E1E1E1E1E1E1E1E1E1E1E1E1E1E1E1E1E1E1E1E1E1E1E1E1E1E1E1E1E1E1E1E1E1E1E1E1E1E1E1E1E1E1E1E1E1E1E1E2E1E1E1E1E1E1E1E1E1E1E1E1E1E1E1E2E1E1E1E1E1E1E1E1E1E1E1E1E1E1E1E1E1E1E1E1E1E1E1E1E1E1E1E1E1E2E1E1E1E1E1E1E1E1E1
310
E1E1E1E1E1E1E1E1E1E1E1E1E1E1E1E1E1E1E1E1E1E1E1E1E1E1E1E1E1E1E1E1E1E1E1E1E1E1E1E1E1E1E1E1E1E1E1E1E1E1E1E1E1E1E1E1E1E1E1E1E1E1E1E1E1E1E1E1E1E1E1E1E1E1E1E1E1E1E1E1E1E2E1E1E1E1E1E1E1E1E1E1E1E1E1E1E1E1E1E1E1E1E1E1E1E1E1E1E1E1E1E1E1E1E1E1E1E1E1E1E1E1E1E1E1E1E1
310
E1E1E1E1E1E1E1E1E1E1E1E1E1E1E1E1E1E1E1E1E1E1E1E1E1E1E1E1E1E1E1E1E1E1E1E1E1E1E1E1E1E1E1E1E1E1E1E1E1E1E1E1E1E1E1E1E1E1E1E1E1E1E1E1E1E1E1E1E1E1E1E1E1E2E1E1E1E1E1E1E1E1E1E1E1E1E1E1E1E2E1E1E1E1E1E1E1E1E1E1E1E1E1E1E1E1E1E1E1E1E1E1E1E1E1E1E1E1E1E2E1E1E1E1E1E1E1
310
E1E1E1E1E1E1E1E1E1E1E1E1E1E1E1E1E1E1E1E1E1E1E1E1E1E1E1E1E1E1E1E1E1E1E1E1E1E1E1E1E1E1E1E1E1E1E1E1E1E1E1E1E1E1E1E1E1E1E1E1E1E1E1E1E1E1E1E1E1E1E1E1E1E1E1E1E1E1E1E1E1E1E1E2E1E1E1E1E1E1E1E1E1E1E1E1E1E1E1E1E1E1E1E1E1E1E1E1E1E1E1E1E1E1E1E1E1E1E1E1E1E1E1E1E1E1E1
310
E1E1E1E1E1E1E1E1E1E1E1E1E1E1E1E1E1E1E1E1E1E1E1E1E1E1E1E1E1E1E1E1E1E1E1E1E1E1E1E1E1E1E1E1E1E1E1E1E1E1E1E1E1E1E1E1E1E1E1E1E1E1E1E1E1E1E1E1E1E1E1E1E1E1E1E2E1E1E1E1E1E1E1E1E1E1E1E1E1E1E1E2E1E1E1E1E1E1E1E1E1E1E1E1E1E1E1E1E1E1E1E1E1E1E1E1E1E1E1E1E1E2E1E1E1E1E1
310
E1E1E1E1E1E1E1E1E1E1E1E1E1E1E1E1E1E1E1E1E1E1E1E1E1E1E1E1E1E1E1E1E1E1E1E1E1E1E1E1E1E1E1E1E1E1E1E1E1E1E1E1E1E1E1E1E1E1E1E1E1E1E1E1E1E1E1E1E1E1E1E1E1E1E1E1E1E1E1E1E1E1E1E1E1E2E1E1E1E1E1E1E1E1E1E1E1E1E1E1E1E1E1E1E1E1E1E1E1E1E1E1E1E1E1E1E1E1E1E1E1E1E1E1E1E1E1
310
E1E1E1E1E1E1E1E1E1E1E1E1E1E1E1E1E1E1E1E1E1E1E1E1E1E1E1E1E1E1E1E1E1E1E1E1E1E1E1E1E1E1E1E1E1E1E1E1E1E1E1E1E1E1E1E1E1E1E1E1E1E1E1E1E1E1E1E1E1E1E1E1E1E1E1E1E1E2E1E1E1E1E1E1E1E1E1E1E1E1E1E1E1E2E1E1E1E1E1E1E1E1E1E1E1E1E1E1E1E1E1E1E1E1E1E1E1E1E1E1E1E1E1E2E1E1E1
310
E1E1E1E1E1E1E1E1E1E1E1E1E1E1E1E1E1E1E1E1E1E1E1E1E1E1E1E1E1E1E1E1E1E1E1E1E1E1E1E1E1E1E1E1E1E1E1E1E1E1E1E1E1E1E1E1E1E1E1E1E1E1E1E1E1E1E1E1E1E1E1E1E1E1E1E1E1E1E1E1E1E1E1E1E1E1E1E2E1E1E1E1E1E1E1E1E1E1E1E1E1E1E1E1E1E1E1E1E1E1E1E1E1E1E1E1E1E1E1E1E1E1E1E1E1E1E1
310
E1E1E1E1E1E1E1E1E1E1E1E1E1E1E1E1E1E1E1E1E1E1E1E1E1E1E1E1E1E1E1E1E1E1E1E1E1E1E1E1E1E1E1E1E1E1E1E1E1E1E1E1E1E1E1E1E1E1E1E1E1E1E1E1E1E1E1E1E1E1E1E1E1E1E1E1E1E1E1E2E1E1E1E1E1E1E1E1E1E1E1E1E1E1E1E2E1E1E1E1E1E1E1E1E1E1E1E1E1E1E1E1E1E1E1E1E1E1E1E1E1E1E1E1E1E2E1
310
E1E1E1E1E1E1E1E1E1E1E1E1E1E1E1E1E1E1E1E1E1E1E1E1E1E1E1E1E1E1E1E1E1E1E1E1E1E1E1E1E1E1E1E1E1E1E1E1E1E1E1E1E1E1E1E1E1E1E1E1E1E1E1E1E1E1E1E1E1E1E1E1E1E1E1E1E1E1E1E1E1E1E1E1E1E1E1E1E1E2E1E1E1E1E1E1E1E1E1E1E1E1E1E1E1E1E1E1E1E1E1E1E1E1E1E1E1E1E1E1E1E1E1E1E1E1E1
310
E1E1E1E1E1E1E1E1E1E1E1E1E1E1E1E1E1E1E1E1E1E1E1E1E1E1E1E1E1E1E1E1E1E1E1E1E1E1E1E1E1E1E1E1E1E1E1E1E1E1E1E1E1E1E1E1E1E1E1E1E1E1E1E1E1E1E1E1E1E1E1E1E1E1E1E1E1E1E1E1E1E2E1E1E1E1E1E1E1E1E1E1E1E1E1E1E1E2E1E1E1E1E1E1E1E1E1E1E1E1E1E1E1E1E1E1E1E1E1E1E1E1E1E1E1E1E1
310
E2E1E1E1E1E1E1E1E1E1E1E1E1E1E1E1E1E1E1E1E1E1E1E1E1E1E1E1E1E1E1E1E1E1E1E1E1E1E1E1E1E1E1E1E1E1E1E1E1E1E1E1E1E1E1E1E1E1E1E1E1E1E1E1E1E1E1E1E1E1E1E1E1E1E1E1E1E1E1E1E1E1E1E1E1E1E1E1E1E1E1E2E1E1E1E1E1E1E1E1E1E1E1E1E1E1E1E1E1E1E1E1E1E1E1E1E1E1E1E1E1E1E1E1E1E1E1
310
E1E1E1E1E1E1E1E1E1E1E1E1E1E1E1E1E1E1E1E1E1E1E1E1E1E1E1E1E1E1E1E1E1E1E1E1E1E1E1E1E1E1E1E1E1E1E1E1E1E1E1E1E1E1E1E1E1E1E1E1E1E1E1E1E1E1E1E1E1E1E1E1E1E1E1E1E1E1E1E1E1E1E1E2E1E1E1E1E1E1E1E1E1E1E1E1E1E1E1E2E1E1E1E1E1E1E1E1E1E1E1E1E1E1E1E1E1E1E1E1E1E1E1E1E1E1E1
310
E1E1E2E1E1E1E1E1E1E1E1E1E1E1E1E1E1E1E1E1E1E1E1E1E1E1E1E1E1E1E1E1E1E1E1E1E1E1E1E1E1E1E1E1E1E1E1E1E1E1E1E1E1E1E1E1E1E1E1E1E1E1E1E1E1E1E1E1E1E1E1E1E1E1E1E1E1E1E1E1E1E1E1E1E1E1E1E1E1E1E1E1E1E2E1E1E1E1E1E1E1E1E1E1E1E1E1E1E1E1E1E1E1E1E1E1E1E1E1E1E1E1E1E1E1E1E1
310
E1E1E1E1E1E1E1E1E1E1E1E1E1E1E1E1E1E1E1E1E1E1E1E1E1E1E1E1E1E1E1E1E1E1E1E1E1E1E1E1E1E1E1E1E1E1E1E1E1E1E1E1E1E1E1E1E1E1E1E1E1E1E1E1E1E1E1E1E1E1E1E1E1E1E1E1E1E1E1E1E1E1E1E1E1E2E1E1E1E1E1E1E1E1E1E1E1E1E1E1E1E2E1E2E2E2E2E2E2E2E2E2E1E1E1E1E1E1E1E1E1E1E1E1E1E1E1
310
E1E1E1E1E2E1E1E2E2E2E2E2E1E1E1E1E1E1E1E1E1E1E1E1E1E1E1E1E1E1E1E1E1E1E1E1E1E1E1E1E1E1E1E1E1E1E1E1E1E1E1E1E1E1E1E1E1E1E1E1E1E1E1E1E1E1E1E1E1E1E1E1E1E1E1E1E1E1E1E1E1E1E1E1E1E1E1E1E1E1E1E1E1E1E1E2E1E1E1E1E1E1E1E1E1E1E1E1E1E1E1E1E1E1E1E1E1E1E1E1E1E1E1E1E1E1E1
310
E1E1E1E1E1E1E1E1E1E1E1E1E1E1E1E1E1E1E1E1E1E1E1E1E1E1E1E1E1E1E1E1E1E1E1E1E1E1E1E1E1E1E1E1E1E1E1E1E1E1E1E1E1E1E1E1E1E1E1E1E1E1E1E1E1E1E1E1E1E1E1E1E1E1E1E1E1E1E1E1E1E1E1E1E1E1E1E2E1E1E1E1E1E1E1E1E1E1E1E1E1E1E1E2E1E2E2E2E2E2E2E2E2E2E1E1E1E1E1E1E1E1E1E1E1E1E1
310
E1E1E1E1E1E1E2E1E1E2E2E2E2E2E1E1E1E1E1E1E1E1E1E1E1E1E1E1E1E1E1E1E1E1E1E1E1E1E1E1E1E1E1E1E1E1E1E1E1E1E1E1E1E1E1E1E1E1E1E1E1E1E1E1E1E1E1E1E1E1E1E1E1E1E1E1E1E1E1E1E1E1E1E1E1E1E1E1E1E1E1E1E1E1E1E1E1E2E1E1E1E1E1E1E1E1E1E1E1E1E1E1E1E1E1E1E1E1E1E1E1E1E1E1E1E1E1
310
E1E1E1E1E1E1E1E1E1E1E1E1E1E1E1E1E1E1E1E1E1E1E1E1E1E1E1E1E1E1E1E1E1E1E1E1E1E1E1E1E1E1E1E1E1E1E1E1E1E1E1E1E1E1E1E1E1E1E1E1E1E1E1E1E1E1E1E1E1E1E1E1E1E1E1E1E1E1E1E1E1E1E1E1E1E1E1E1E1E2E1E1E1E1E1E1E1E1E1E1E1E1E1E1E1E2E1E1E1E1E1E1E1E1E1E1E1E1E1E1E1E1E1E1E1E1E1
310
E1E1E1E1E1E1E1E1E2E1E1E1E1E1E1E1E1E1E1E1E1E1E1E1E1E1E1E1E1E1E1E1E1E1E1E1E1E1E1E1E1E1E1E1E1E1E1E1E1E1E1E1E1E1E1E1E1E1E1E1E1E1E1E1E1E1E1E1E1E1E1E1E1E1E1E1E1E1E1E1E1E1E1E1E1E1E1E1E1E1E1E1E1E1E1E1E1E1E1E2E1E1E1E1E1E1E1E1E1E1E1E1E1E1E1E1E1E1E1E1E1E1E1E1E1E1E1
310
E1E1E1E1E1E1E1E1E1E1E1E1E1E1E1E1E1E1E1E1E1E1E1E1E1E1E1E1E1E1E1E1E1E1E1E1E1E2E2E2E2E2E2E2E2E2E2E2E2E2E2E2E2E2E2E2E2E2E2E2E2E2E2E2E2E2E2E2E2E2E2E2E2E2E2E2E2E2E2E2E2E2E2E2E2E2E2E2E2E2E2E2E1E1E1E1E1E1E1E1E1E1E1E1E1E1E1E2E1E1E1E1E1E1E1E1E1E1E1E1E1E1E1E1E1E1E1
310
E1E1E1E1E1E1E1E1E1E1E2E1E1E1E1E1E1E1E1E1E1E1E1E1E1E1E1E1E1E1E1E1E1E1E1E1E1E1E1E1E1E1E1E1E1E1E1E1E1E1E1E1E1E1E1E1E1E1E1E1E1E1E1E1E1E1E1E1E1E1E1E1E1E1E1E1E1E1E1E1E1E1E1E1E1E1E1E1E1E1E1E1E1E1E1E1E1E1E1E1E1E2E1E1E1E1E1E1E1E1E1E1E1E1E1E1E1E1E1E1E1E1E1E1E1E1E1
310
E1E1E1E1E1E1E1E1E1E1E1E1E1E1E1E1E1E1E1E1E1E1E1E1E1E1E1E1E1E1E1E1E1E1E1E1E1E1E1E1E1E1E1E1E1E1E1E1E1E1E1E1E1E1E1E1E1E1E1E1E1E1E1E1E1E1E1E1E1E1E1E1E1E1E1E1E1E1E1E1E1E1E1E1E1E1E1E1E1E1E1E1E1E2E1E1E1E1E1E1E1E1E1E1E1E1E1E1E1E2E1E1E1E1E1E1E1E1E1E1E1E1E1E1E1E1E1
310
E1E1E1E1E1E1E1E1E1E1E1E1E2E1E1E1E1E1E1E1E1E1E1E1E1E1E1E1E1E1E1E1E1E1E1E1E1E1E1E1E1E1E1E1E1E1E1E1E1E1E1E1E1E1E1E1E1E1E1E1E1E1E1E1E1E1E1E1E1E1E1E1E1E1E1E1E1E1E1E1E1E1E1E1E1E1E1E1E1E1E1E1E1E1E1E1E1E1E1E1E1E1E1E2E1E1E1E1E1E1E1E1E1E1E1E1E1E1E1E1E1E1E1E1E1E1E1
310
E1E1E1E1E1E1E1E1E1E1E1E1E1E1E1E1E1E1E1E1E1E1E1E1E1E1E1E1E1E1E1E1E1E1E1E1E1E1E1E1E1E1E1E1E1E1E1E1E1E1E1E1E1E1E1E1E1E1E1E1E1E1E1E1E1E1E1E1E1E1E1E1E1E1E1E1E1E1E1E1E1E1E1E1E1E1E1E1E1E1E1E1E1E1E1E2E1E1E1E1E1E1E1E1E1E1E1E1E1E1E1E2E1E1E1E1E1E1E1E1E1E1E1E1E1E1E1
310
E1E1E1E1E1E1E1E1E1E1E1E1E1E1E2E1E1E1E1E2E2E2E2E2E2E2E2E2E2E2E2E2E2E2E2E2E2E2E2E2E2E2E2E2E2E2E1E2E2E2E2E2E1E2E1E1E1E1E1E1E1E1E1E1E1E1E1E1E1E1E1E1E1E1E1E1E1E1E1E1E1E1E1E1E1E1E1E1E1E1E1E1E1E1E1E1E1E1E1E1E1E1E1E1E1E2E1E1E1E1E1E1E1E1E1E1E1E1E1E1E1E1E1E1E1E1E1
310
E1E1E1E1E1E1E1E1E1E1E1E1E1E1E1E1E1E1E1E1E1E1E1E1E1E1E1E1E1E1E1E1E1E1E1E1E1E1E1E1E1E1E1E1E1E1E1E1E1E1E1E1E1E1E1E1E1E1E1E1E1E1E1E1E1E1E1E1E1E1E1E1E1E1E1E1E1E1E1E1E1E1E1E1E1E1E1E1E1E1E1E1E1E1E1E1E1E2E1E1E1E1E1E1E1E1E1E1E1E1E1E1E1E2E1E1E1E1E1E1E1E1E1E1E1E1E1
310
E1E1E1E1E1E1E1E1E1E1E1E1E1E1E1E1E2E1E1E1E1E2E2E2E2E2E2E2E2E2E2E1E2E2E1E2E2E1E2E2E1E2E2E1E2E2E2E2E2E2E2E2E2E2E2E1E1E1E1E1E1E1E1E1E1E1E1E1E1E1E1E1E1E1E1E1E1E1E1E1E1E1E1E1E1E1E1E1E1E1E1E1E1E1E1E1E1E1E1E1E1E1E1E1E1E1E1E2E1E1E1E1E1E1E1E1E1E1E1E1E1E1E1E1E1E1E1
310
E1E1E1E1E1E1E1E1E1E1E1E1E1E1E1E1E1E1E1E1E1E1E1E1E1E1E1E1E1E1E1E1E1E1E1E1E1E1E1E1E1E1E1E1E1E1E1E1E1E1E1E1E1E1E1E1E1E1E1E1E1E1E1E1E1E1E1E1E1E1E1E1E1E1E1E1E1E1E1E1E1E1E1E1E1E1E1E1E1E1E1E1E1E1E1E1E1E1E1E2E1E1E1E1E1E1E1E1E1E1E1E1E1E1E1E2E1E1E1E1E1E1E1E1E1E1E1
310
E1E1E1E1E1E1E1E1E1E1E1E1E1E1E1E1E1E1E2E1E1E1E1E2E2E2E2E2E2E1E2E2E2E2E2E2E2E2E2E1E2E2E2E2E2E2E2E2E2E2E2E2E2E2E2E2E1E2E1E1E1E1E1E1E1E1E1E1E1E1E1E1E1E1E1E1E1E1E1E1E1E1E1E1E1E1E1E1E1E1E1E1E1E1E1E1E1E1E1E1E1E1E1E1E1E1E1E1E1E2E1E1E1E1E1E1E1E1E1E1E1E1E1E1E1E1E1
310
E1E1E1E1E1E1E1E1E1E1E1E1E1E1E1E1E1E1E1E1E1E1E1E1E1E1E1E1E1E1E1E1E1E1E1E1E1E1E1E1E1E1E1E1E1E1E1E1E1E1E1E1E1E1E1E1E1E1E1E1E1E1E1E1E1E1E1E1E1E1E1E1E1E1E1E1E1E1E1E1E1E1E1E1E1E1E1E1E1E1E1E1E1E1E1E1E1E1E1E1E1E2E1E1E1E1E1E1E1E1E1E1E1E1E1E1E1E2E1E1E1E1E1E1E1E1E1
310
E1E1E1E1E1E1E1E1E1E1E1E1E1E1E1E1E1E1E1E1E2E1E1E1E1E1E1E1E1E1E1E1E1E1E1E1E1E1E1E1E1E1E1E1E1E1E1E1E1E1E1E1E1E1E1E1E1E1E1E1E1E1E1E1E1E1E1E1E1E1E1E1E1E1E1E1E1E1E1E1E1E1E1E1E1E1E1E1E1E1E1E1E1E1E1E1E1E1E1E1E1E1E1E1E1E1E1E1E1E1E1E2E1E1E1E1E1E1E1E1E1E1E1E1E1E1E1
310
E1E1E1E1E1E1E1E1E1E1E1E1E1E1E1E1E1E1E1E1E1E1E1E1E1E1E1E1E1E1E1E1E1E1E1E1E1E1E1E1E1E1E1E1E1E1E1E1E1E1E1E1E1E1E1E1E1E1E1E1E1E1E1E1E1E1E1E1E1E1E1E1E1E1E1E1E1E1E1E1E1E1E1E1E1E1E1E1E1E1E1E1E1E1E1E1E1E1E1E1E1E1E1E2E1E1E1E1E1E1E1E1E1E1E1E1E1E1E1E2E1E1E1E1E1E1E1
310
E1E1E1E1E1E1E1E1E1E1E1E1E1E1E1E1E1E1E1E1E1E1E2E1E1E1E1E1E1E1E1E1E1E1E1E1E1E1E1E1E1E1E1E1E1E1E1E1E1E1E1E1E1E1E1E1E1E1E1E1E1E1E1E1E1E1E1E1E1E1E1E1E1E1E1E1E1E1E1E1E1E1E1E1E1E1E1E1E1E1E1E1E1E1E1E1E1E1E1E1E1E1E1E1E1E1E1E1E1E1E1E1E1E2E1E1E1E1E1E1E1E1E1E1E1E1E1
310
E1E1E1E1E1E1E1E1E1E1E1E1E1E1E1E1E1E1E1E1E1E1E1E1E1E1E1E1E1E1E1E1E1E1E1E1E1E1E1E1E1E1E1E1E1E1E1E1E1E1E1E1E1E1E1E1E1E1E1E1E1E1E1E1E1E1E1E1E1E1E1E1E1E1E1E1E1E1E1E1E1E1E1E1E1E1E1E1E1E1E1E1E1E1E1E1E1E1E1E1E1E1E1E1E1E2E1E1E1E1E1E1E1E1E1E1E1E1E1E1E1E2E1E1E1E1E1
310
E1E1E1E1E1E1E1E1E1E1E1E1E1E1E1E1E1E1E1E1E1E1E1E1E2E1E1E1E1E1E1E1E1E1E1E1E1E1E1E1E1E1E1E1E1E1E1E1E1E1E1E1E1E1E1E1E1E1E1E1E1E1E1E1E1E1E1E1E1E1E1E1E1E1E1E1E1E1E1E1E1E1E1E1E1E1E1E1E1E1E1E1E1E1E1E1E1E1E1E1E1E1E1E1E1E1E1E1E1E1E1E1E1E1E1E2E1E1E1E1E1E1E1E1E1E1E1
310
E1E1E1E1E1E1E1E1E1E1E1E1E1E1E1E1E1E1E1E1E1E1E1E1E1E1E1E1E1E1E1E1E1E1E1E1E1E1E1E1E1E1E1E1E1E1E1E1E1E1E1E1E1E2E2E2E2E2E2E2E2E2E2E2E2E2E2E2E2E2E2E2E2E2E2E2E2E2E2E2E2E2E2E2E2E2E2E2E2E2E2E2E2E2E2E2E2E2E2E2E2E2E2E2E2E2E2E2E1E1E1E1E1E1E1E1E1E1E1E1E1E1E1E2E1E1E1
310
E1E1E1E1E1E1E1E1E1E1E1E1E1E1E1E1E1E1E1E1E1E1E1E1E1E1E2E1E1E1E1E1E1E1E1E1E1E1E1E1E1E1E1E1E1E1E1E1E1E1E1E1E1E1E1E1E1E1E1E1E1E1E1E1E1E1E1E1E1E1E1E1E1E1E1E1E1E1E1E1E1E1E1E1E1E1E1E1E1E1E1E1E1E1E1E1E1E1E1E1E1E1E1E1E1E1E1E1E1E1E1E1E1E1E1E1E1E2E1E1E1E1E1E1E1E1E1
310
E1E1E1E1E1E1E1E1E1E1E1E1E1E1E1E1E1E1E1E1E1E1E1E1E1E1E1E1E1E1E1E1E1E1E1E1E1E1E1E1E1E1E1E1E1E1E1E1E1E1E1E1E1E1E1E1E1E1E1E1E1E1E1E1E1E1E1E1E1E1E1E1E1E1E1E1E1E1E1E1E1E1E1E1E1E1E1E1E1E1E1E1E1E1E1E1E1E1E1E1E1E1E1E1E1E1E1E1E1E2E1E1E1E1E1E1E1E1E1E1E1E1E1E1E1E2E1
310
E1E1E1E1E1E1E1E1E1E1E1E1E1E1E1E1E1E1E1E1E1E1E1E1E1E1E1E1E2E1E1E1E1E1E1E1E1E1E1E1E1E1E1E1E1E1E1E1E1E1E1E1E1E1E1E1E1E1E1E1E1E1E1E1E1E1E1E1E1E1E1E1E1E1E1E1E1E1E1E1E1E1E1E1E1E1E1E1E1E1E1E1E1E1E1E1E1E1E1E1E1E1E1E1E1E1E1E1E1E1E1E1E1E1E1E1E1E1E1E2E1E1E1E1E1E1E1
310
E1E1E1E1E1E1E1E1E1E1E1E1E1E1E1E1E1E1E1E1E1E1E1E1E1E1E1E1E1E1E1E1E1E1E1E1E1E1E1E1E1E1E1E1E1E1E1E1E1E1E1E1E1E1E1E1E1E1E1E1E1E1E1E1E1E1E1E1E1E1E1E1E1E1E1E1E1E1E1E1E1E1E1E1E1E1E1E1E1E1E1E1E1E1E1E1E1E1E1E1E1E1E1E1E1E1E1E1E1E1E1E2E1E1E1E1E1E1E1E1E1E1E1E1E1E1E1
310
E2E1E1E1E1E1E1E1E1E1E1E1E1E1E1E1E1E1E1E1E1E1E1E1E1E1E1E1E1E1E2E1E1E1E1E1E1E1E1E1E1E1E1E1E1E1E1E1E1E1E1E1E1E1E1E1E1E1E1E1E1E1E1E1E1E1E1E1E1E1E1E1E1E1E1E1E1E1E1E1E1E1E1E1E1E1E1E1E1E1E1E1E1E1E1E1E1E1E1E1E1E1E1E1E1E1E1E1E1E1E1E1E1E1E1E1E1E1E1E1E1E2E1E1E1E1E1
310
E1E1E1E1E1E1E1E1E1E1E1E1E1E1E1E1E1E1E1E1E1E1E1E1E1E1E1E1E1E1E1E1E1E1E1E1E1E1E1E1E1E1E1E1E1E1E1E1E1E1E1E1E1E1E1E1E1E1E1E1E1E1E1E1E1E1E1E1E1E1E1E1E1E1E1E1E1E1E1E1E1E1E1E1E1E1E1E1E1E1E1E1E1E1E1E1E1E1E1E1E1E1E1E1E1E1E1E1E1E1E1E1E1E2E1E1E1E1E1E1E1E1E1E1E1E1E1
310
E1E1E2E1E1E1E1E1E1E1E1E1E1E1E1E1E1E1E1E1E1E1E1E1E1E1E1E1E1E1E1E1E2E1E1E1E1E1E1E1E1E1E1E1E1E1E1E1E1E1E1E1E1E1E1E1E1E1E1E1E1E1E1E1E1E1E1E1E1E1E1E1E1E1E1E1E1E1E1E1E1E1E1E1E1E1E1E1E1E1E1E1E1E1E1E1E1E1E1E1E1E1E1E1E1E1E1E1E1E1E1E1E1E1E1E1E1E1E1E1E1E1E1E2E1E1E1
310
E1E1E1E1E1E1E1E1E1E1E1E1E1E1E1E1E1E1E1E1E1E1E1E1E1E1E1E1E1E1E1E1E1E1E1E1E1E1E1E1E1E1E1E1E1E1E1E1E1E1E1E1E1E1E1E1E1E1E1E1E1E1E1E1E1E1E1E1E1E1E1E1E1E1E1E1E1E1E1E1E1E1E1E1E1E1E1E1E1E1E1E1E1E1E1E1E1E1E1E1E1E1E1E1E1E1E1E1E1E1E1E1E1E1E1E2E1E1E1E1E1E1E1E1E1E1E1
310
E1E1E1E1E2E1E1E1E1E1E1E1E1E1E1E1E1E1E1E1E1E1E1E1E1E1E1E1E1E1E1E1E1E1E2E1E1E1E1E1E1E1E1E1E1E1E1E1E1E1E1E1E1E1E1E1E1E1E1E1E1E1E1E1E1E1E1E1E1E1E1E1E1E1E1E1E1E1E1E1E1E1E1E1E1E1E1E1E1E1E1E1E1E1E1E1E1E1E1E1E1E1E1E1E1E1E1E1E1E1E1E1E1E1E1E1E1E1E1E1E1E1E1E1E1E2E1
310
E1E1E1E1E1E1E1E1E1E1E1E1E1E1E1E1E1E1E1E1E1E1E1E1E1E1E1E1E1E1E1E1E1E1E1E1E1E1E1E1E1E1E1E1E1E1E1E1E1E1E1E1E1E1E1E1E1E1E1E1E1E1E1E1E1E1E1E1E1E1E1E1E1E1E1E1E1E1E1E1E1E1E1E1E1E1E1E1E1E1E1E1E1E1E1E1E1E1E1E1E1E1E1E1E1E1E1E1E1E1E1E1E1E1E1E1E1E2E1E1E1E1E1E1E1E1E1
310
E1E1E1E1E1E1E2E1E1E1E1E1E1E1E1E1E1E1E1E1E1E1E1E1E1E1E1E1E1E1E1E1E1E1E1E1E2E1E1E1E1E1E1E1E1E1E1E1E1E1E1E1E1E1E1E1E1E1E1E1E1E1E1E1E1E1E1E1E1E1E1E1E1E1E1E1E1E1E1E1E1E1E1E1E1E1E1E1E1E1E1E1E1E1E1E1E1E1E1E1E1E1E1E1E1E1E1E1E1E1E1E1E1E1E1E1E1E1E1E1E1E1E1E1E1E1E1
310
E2E1E1E1E1E1E1E1E1E1E1E1E1E1E1E1E1E1E1E1E1E1E1E1E1E1E1E1E1E1E1E1E1E1E1E1E1E1E1E1E1E1E1E1E1E1E1E1E1E1E1E1E1E1E1E1E1E1E1E1E1E1E1E1E1E1E1E1E1E1E1E1E1E1E1E1E1E1E1E1E1E1E1E1E1E1E1E1E1E1E1E1E1E1E1E1E1E1E1E1E1E1E1E1E1E1E1E1E1E1E1E1E1E1E1E1E1E1E1E2E1E1E1E1E1E1E1
310
E1E1E1E1E1E1E1E1E2E1E1E1E1E1E1E1E1E1E1E1E1E1E1E1E1E1E1E1E1E1E1E1E1E1E1E1E1E1E2E1E1E1E1E1E1E1E1E1E1E1E1E1E1E1E1E1E1E1E1E1E1E1E1E1E1E1E1E1E1E1E1E1E1E1E1E1E1E1E1E1E1E1E1E1E1E1E1E1E1E1E1E1E1E1E1E1E1E1E1E1E1E1E1E1E1E1E1E1E1E1E1E1E1E1E1E1E1E1E1E1E1E1E1E1E1E1E1
310
E1E1E2E1E1E1E1E1E1E1E1E1E1E1E1E1E1E1E1E1E1E1E1E1E1E1E1E1E1E1E1E1E1E1E1E1E1E1E1E1E1E1E1E1E1E1E1E1E1E1E1E1E1E1E1E1E1E1E1E1E1E1E1E1E1E1E1E1E1E1E1E1E1E1E1E1E1E1E1E1E1E1E1E1E1E1E1E1E1E1E1E1E1E1E1E1E1E1E1E1E1E1E1E1E1E1E1E1E1E1E1E1E1E1E1E1E1E1E1E1E1E2E1E1E1E1E1
310
E1E1E1E1E1E1E1E1E1E1E2E1E1E1E1E1E1E1E1E1E1E1E1E1E1E1E1E1E1E1E1E1E1E1E1E1E1E1E1E1E2E1E1E1E1E1E1E1E1E1E1E1E1E1E1E1E1E1E1E1E1E1E1E1E1E1E1E1E1E1E1E1E1E1E1E1E1E1E1E1E1E1E1E1E1E1E1E1E1E1E1E1E1E1E1E1E1E1E1E1E1E1E1E1E1E1E1E1E1E1E1E1E1E1E1E1E1E1E1E1E1E1E1E1E1E1E1
310
E1E1E1E1E2E1E1E1E1E1E1E1E1E1E1E1E1E1E1E1E1E1E1E1E1E1E1E1E1E1E1E1E1E1E1E1E1E1E1E1E1E1E1E1E1E1E1E1E1E1E1E1E1E1E1E1E1E1E1E1E1E1E1E1E1E1E1E1E1E1E1E1E1E1E1E1E1E1E1E1E1E1E1E1E1E1E1E1E1E1E1E1E1E1E1E1E1E1E1E1E1E1E1E1E1E1E1E1E1E1E1E1E1E1E1E1E1E1E1E1E1E1E1E2E1E1E1
310
E1E1E1E1E1E1E1E1E1E1E1E1E2E1E1E1E1E1E1E1E1E1E1E1E1E1E1E1E1E1E1E1E1E1E1E1E1E1E1E1E1E1E2E1E1E1E1E1E1E1E1E1E1E1E1E1E1E1E1E1E1E1E1E1E1E1E1E1E1E1E1E1E1E1E1E1E1E1E1E1E1E1E1E1E1E1E1E1E1E1E1E1E1E1E1E1E1E1E1E1E1E1E1E1E1E1E1E1E1E1E1E1E1E1E1E1E1E1E1E1E1E1E1E1E1E1E1
310
E1E1E1E1E1E1E2E1E1E1E1E1E1E1E1E1E1E1E1E1E1E1E1E1E1E1E1E1E1E1E1E1E1E1E1E1E1E1E1E1E1E1E1E1E1E1E1E1E1E1E1E1E1E1E1E1E1E1E1E1E1E1E1E1E1E1E1E1E1E1E1E1E1E1E1E1E1E1E1E1E1E1E1E1E1E1E1E1E1E1E1E1E1E1E1E1E1E1E1E1E1E1E1E1E1E1E1E1E1E1E1E1E1E1E1E1E1E1E1E1E1E1E1E1E1E2E1
310
E1E1E1E1E1E1E1E1E1E1E1E1E1E1E2E1E1E1E1E1E1E1E1E1E1E1E1E1E1E1E1E1E1E1E1E1E1E1E1E1E1E1E1E1E2E1E1E1E1E1E1E1E1E1E1E1E1E1E1E1E1E1E1E1E1E1E1E1E1E1E1E1E1E1E1E1E1E1E1E1E1E1E1E1E1E1E1E1E1E1E1E1E1E1E1E1E1E1E1E1E1E1E1E1E1E1E1E1E1E1E1E1E1E1E1E1E1E1E1E1E1E1E1E1E1E1E1
310
E1E1E1E1E1E1E1E1E2E1E1E1E1E1E1E1E1E1E1E1E1E1E1E1E1E1E1E1E1E1E1E1E1E1E1E1E1E1E1E1E1E1E1E1E1E1E1E1E1E1E1E1E1E1E1E1E1E1E1E1E1E1E1E1E1E1E1E1E1E1E1E1E1E1E1E1E1E1E1E1E1E1E1E1E1E1E1E1E1E1E1E1E1E1E1E1E1E1E1E1E1E1E1E1E1E1E1E1E1E1E1E1E1E1E1E1E1E1E1E1E1E1E1E1E1E1E1
310
E2E1E1E1E1E1E1E1E1E1E1E1E1E1E1E1E2E1E1E1E1E1E1E1E1E1E1E1E1E1E1E1E1E1E1E1E1E1E1E1E1E1E1E1E1E1E2E1E1E1E1E1E1E1E1E1E1E1E1E1E1E1E1E1E1E1E1E1E1E1E1E1E1E1E1E1E1E1E1E1E1E1E1E1E1E1E1E1E1E1E1E1E1E1E1E1E1E1E1E1E1E1E1E1E1E1E1E1E1E1E1E1E1E1E1E1E1E1E1E1E1E1E1E1E1E1E1
310
E1E1E1E1E1E1E1E1E1E1E2E1E1E1E1E1E1E1E1E1E1E1E1E1E1E1E1E1E1E1E1E1E1E1E1E1E1E1E1E1E1E1E1E1E1E1E1E1E1E1E1E1E1E1E1E1E1E1E1E1E1E1E1E1E1E1E1E1E1E1E1E1E1E1E1E1E1E1E1E1E1E1E1E1E1E1E1E1E1E1E1E1E1E1E1E1E1E1E1E1E1E1E1E1E1E1E1E1E1E1E1E1E1E1E1E1E1E1E1E1E1E1E1E1E1E1E1
310
E1E1E2E1E1E1E1E1E1E1E1E1E1E1E1E1E1E1E2E1E1E1E1E1E1E1E1E1E1E1E1E1E1E1E1E1E1E1E1E1E1E1E1E1E1E1E1E1E2E1E1E1E1E1E1E1E1E1E1E1E1E1E1E1E1E1E1E1E1E1E1E1E1E1E1E1E1E1E1E1E1E1E1E1E1E1E1E1E1E1E1E1E1E1E1E1E1E1E1E1E1E1E1E1E1E1E1E1E1E1E1E1E1E1E1E1E1E1E1E1E1E1E1E1E1E1E1
310
E1E1E1E1E1E1E1E1E1E1E1E1E2E1E1E1E1E1E1E1E1E1E1E1E1E1E1E1E1E1E1E1E1E1E1E1E1E1E1E1E1E1E1E1E1E1E1E1E1E1E1E1E1E1E1E1E1E1E1E1E1E1E1E1E1E1E1E1E1E1E1E1E1E1E1E1E1E1E1E1E1E1E1E1E1E1E1E1E1E1E1E1E1E1E1E1E1E1E1E1E1E1E1E1E1E1E1E1E1E1E1E1E1E1E1E1E1E1E1E1E1E1E1E1E1E1E1
310
E1E1E1E1E2E1E1E1E1E1E1E1E1E1E1E1E1E1E1E1E2E1E1E1E1E1E1E1E1E1E1E1E1E1E1E1E1E1E1E1E1E1E1E1E1E1E1E1E1E1E2E1E1E1E1E1E1E1E1E1E1E1E1E1E1E1E1E1E1E1E1E1E1E1E1E1E1E1E1E1E1E1E1E1E1E1E1E1E1E1E1E1E1E1E1E1E1E1E1E1E1E1E1E1E1E1E1E1E1E1E1E1E1E1E1E1E1E1E1E1E1E1E1E1E1E1E1
310
E1E1E1E1E1E1E1E1E1E1E1E1E1E1E2E1E1E1E1E1E1E1E1E1E1E1E1E1E1E1E1E1E1E1E1E1E1E1E1E1E1E1E1E1E1E1E1E1E1E1E1E1E1E1E1E1E1E1E1E1E1E1E1E1E1E1E1E1E1E1E1E1E1E1E1E1E1E1E1E1E1E1E1E1E1E1E1E1E1E1E1E1E1E1E1E1E1E1E1E1E1E1E1E1E1E1E1E1E1E1E1E1E1E1E1E1E1E1E1E1E1E1E1E1E1E1E1
310
E1E1E1E1E1E1E2E1E1E1E1E1E1E1E1E1E1E1E1E1E1E1E2E1E1E1E1E1E1E1E1E1E1E1E1E1E1E1E1E1E1E1E1E1E1E1E1E1E1E1E1E1E2E1E1E1E1E1E1E1E1E1E1E1E1E1E1E1E1E1E1E1E1E1E1E1E1E1E1E1E1E1E1E1E1E1E1E1E1E1E1E1E1E1E1E2E2E2E2E2E2E2E2E2E2E2E1E1E1E1E1E1E1E1E1E1E1E1E1E1E1E1E1E1E1E1E1
310
E1E1E1E1E1E1E1E1E1E1E1E1E1E1E1E1E2E1E1E1E1E1E1E1E1E1E1E1E1E1E1E1E1E1E1E1E1E1E1E1E1E1E1E1E1E1E1E1E1E1E1E1E1E1E1E1E1E1E1E1E1E1E1E1E1E1E1E1E1E1E1E1E1E1E1E1E1E1E1E1E1E1E1E1E1E1E1E1E1E1E1E1E1E1E1E1E1E1E1E1E1E1E1E1E1E1E1E1E1E1E1E1E1E1E1E1E1E1E1E1E1E1E1E1E1E1E1
310
E1E1E1E1E1E1E1E1E2E1E1E1E1E1E1E1E1E1E1E1E1E1E1E1E2E1E1E1E1E1E1E1E1E1E1E1E1E1E1E1E1E1E1E1E1E1E1E1E1E1E1E1E1E1E2E1E1E1E1E1E1E1E1E1E1E1E1E1E1E1E1E1E1E1E1E1E1E1E1E1E1E1E1E1E1E1E1E1E1E1E1E1E1E1E1E1E1E2E2E2E2E2E2E2E2E2E2E2E1E1E1E1E1E1E1E1E1E1E1E1E1E1E1E1E1E1E1
310
E1E1E1E1E1E1E1E1E1E1E1E1E1E1E1E1E1E1E2E1E1E1E1E1E1E1E1E1E1E1E1E1E1E1E1E1E1E1E1E1E1E1E1E1E1E1E1E1E1E1E1E1E1E1E1E1E1E1E1E1E1E1E1E1E1E1E1E1E1E1E1E1E1E1E1E1E1E1E1E1E1E1E1E1E1E1E1E1E1E1E1E1E1E1E1E1E1E1E1E1E1E1E1E1E1E1E1E1E1E1E1E1E1E1E1E1E1E1E1E1E1E1E1E1E1E1E1
310
E1E1E1E1E1E1E1E1E1E1E2E1E1E1E1E1E1E1E1E1E1E1E1E1E1E1E2E1E1E1E1E1E1E1E1E1E1E1E1E1E1E1E1E1E1E1E1E1E1E1E1E1E1E1E1E1E2E1E1E1E1E1E1E1E1E1E1E1E1E1E1E1E1E1E1E1E1E1E1E1E1E1E1E1E1E1E1E1E1E1E1E1E1E1E1E1E1E1E1E2E2E2E2E2E2E2E2E2E2E2E1E1E1E1E1E1E1E1E1E1E1E1E1E1E1E1E1
310
E1E1E1E1E1E1E1E1E1E1E1E1E1E1E1E1E1E1E1E1E2E1E1E1E1E1E1E1E1E1E1E1E1E1E1E1E1E1E1E1E1E1E1E1E1E1E1E1E1E1E1E1E1E1E1E1E1E1E1E1E1E1E1E1E1E1E1E1E1E1E1E1E1E1E1E1E1E1E1E1E1E1E1E1E1E1E1E1E1E1E1E1E1E1E1E1E1E1E1E1E1E1E1E1E1E1E1E1E1E1E1E1E1E1E1E1E1E1E1E1E1E1E1E1E1E1E1
310
E1E1E1E1E1E1E1E1E1E1E1E1E2E1E1E1E1E1E1E1E1E1E1E1E1E1E1E1E2E1E1E1E1E1E1E1E1E1E1E1E1E1E1E1E1E1E1E1E1E1E1E1E1E1E1E1E1E1E2E1E1E1E1E1E1E1E1E1E1E1E1E1E1E1E1E1E1E1E1E1E1E1E1E1E1E1E1E1E1E1E1E1E1E1E1E1E1E1E1E1E1E2E1E1E1E1E1E1E1E1E2E2E1E1E1E1E1E1E1E1E1E1E1E1E1E1E1
310
E1E1E1E1E1E1E1E1E1E1E1E1E1E1E1E1E1E1E1E1E1E1E2E1E1E1E1E1E1E1E1E1E1E1E1E1E1E1E1E1E1E1E1E1E1E1E1E1E1E1E1E1E1E1E1E1E1E1E1E1E1E1E1E1E1E1E1E1E1E1E1E1E1E1E1E1E1E1E1E1E1E1E1E1E1E1E1E2E2E2E2E2E2E2E2E2E2E2E2E2E2E2E2E2E2E2E2E1E1E1E1E1E1E1E1E1E1E1E1E1E1E1E1E1E1E1E1
310
E1E1E1E1E1E1E1E1E1E1E1E1E1E1E2E1E1E1E1E1E1E1E1E1E1E1E1E1E1E1E2E1E1E1E1E1E1E1E1E1E1E1E1E1E1E1E1E1E1E1E1E1E1E1E1E1E1E1E1E1E2E1E1E1E1E1E1E1E1E1E1E1E1E1E1E1E1E1E1E1E1E1E1E1E1E1E1E1E1E1E1E1E1E1E1E1E1E1E1E1E1E1E1E2E1E1E1E1E1E1E1E1E2E2E1E1E1E1E1E1E1E1E1E1E1E1E1
310
E1E1E1E1E1E1E1E1E1E1E1E1E1E1E1E1E1E1E1E1E1E1E1E1E2E1E1E1E1E1E1E1E1E1E1E1E1E1E1E1E1E1E1E1E1E1E1E1E1E1E1E1E1E1E1E1E1E1E1E1E1E1E1E1E1E1E1E1E1E1E1E1E1E1E1E1E1E1E1E1E1E1E1E1E1E1E1E1E1E1E1E1E1E1E1E1E1E1E1E1E1E1E2E2E2E2E2E2E2E1E1E1E1E1E1E1E1E1E1E1E1E1E1E1E1E1E1
310
E1E1E1E1E1E1E1E1E1E1E1E1E1E1E1E1E2E1E1E1E1E1E1E1E1E1E1E1E1E1E1E1E2E1E1E1E1E1E1E1E1E1E1E1E1E1E1E1E1E1E1E1E1E1E1E1E1E1E1E1E1E1E2E1E1E1E1E1E1E1E1E1E1E1E1E1E1E1E1E1E1E1E1E1E1E1E1E1E1E1E1E1E1E1E1E1E1E1E1E1E1E1E1E1E2E2E1E1E1E1E1E1E1E1E2E2E1E1E1E1E1E1E1E1E1E1E1
310
E1E1E1E1E1E1E1E1E1E1E1E1E1E1E1E1E1E1E1E1E1E1E1E1E1E1E2E1E1E1E1E1E1E1E1E1E1E1E1E1E1E1E1E1E1E1E1E1E1E1E1E1E1E1E1E1E1E1E1E1E1E1E1E1E1E1E1E1E1E1E1E1E1E1E1E1E1E1E1E1E1E1E1E1E1E1E1E1E1E1E1E1E1E1E1E1E1E1E1E1E1E1E1E1E2E2E2E2E2E2E2E1E1E1E1E1E1E1E1E1E1E1E1E1E1E1E1
310
E1E1E1E1E1E1E1E1E1E1E1E1E1E1E1E1E1E1E2E1E1E1E1E1E1E1E1E1E1E1E1E1E1E1E2E1E1E1E1E1E1E1E1E1E1E1E1E1E1E1E1E1E1E1E1E1E1E1E1E1E1E1E1E1E2E1E1E1E1E1E1E1E1E1E1E1E1E1E1E1E1E1E1E1E1E1E1E1E1E1E1E1E1E1E1E1E1E1E1E1E1E1E1E1E1E1E2E2E1E1E1E1E1E1E1E1E2E2E1E1E1E1E1E1E1E1E1
310
E1E1E1E1E1E1E1E1E1E1E1E1E1E1E1E1E1E1E1E1E1E1E1E1E1E1E1E1E2E1E1E1E1E1E1E1E1E1E1E1E1E1E1E1E1E1E1E1E1E1E1E1E1E1E1E1E1E1E1E1E1E1E1E1E1E1E1E1E1E1E1E1E1E1E1E1E1E1E1E1E1E1E1E1E1E1E1E1E1E1E1E1E1E2E2E2E2E2E2E2E2E2E2E2E2E2E2E2E2E2E2E2E2E1E1E1E1E1E1E1E1E1E1E1E1E1E1
310
E1E1E1E1E1E1E1E1E1E1E1E1E1E1E1E1E1E1E1E1E2E1E1E1E1E1E1E1E1E1E1E1E1E1E1E1E2E1E1E1E1E1E1E1E1E1E1E1E1E1E1E1E1E1E1E1E1E1E1E1E1E1E1E1E1E1E2E1E1E1E1E1E1E1E1E1E1E1E1E1E1E1E1E1E1E1E1E1E1E1E1E1E1E1E1E1E1E1E1E1E1E1E1E1E1E1E1E1E1E2E2E2E2E2E2E2E2E2E2E2E1E1E1E1E1E1E1
310
E1E1E1E1E1E1E1E1E1E1E1E1E1E1E1E1E1E1E1E1E1E1E1E1E1E1E1E1E1E1E2E1E1E1E1E1E1E1E1E1E1E1E1E1E1E1E1E1E1E1E1E1E1E1E1E1E1E1E1E1E1E1E1E1E1E1E1E1E1E1E1E1E1E1E1E1E1E1E1E1E1E1E1E1E1E1E1E1E1E1E1E1E1E1E1E1E1E1E1E1E1E1E1E1E1E1E1E1E1E1E1E1E1E1E1E1E1E1E1E1E1E1E1E1E1E1E1
310
E1E1E1E1E1E1E1E1E1E1E1E1E1E1E1E1E1E1E1E1E1E1E2E1E1E1E1E1E1E1E1E1E1E1E1E1E1E1E2E1E1E1E1E1E1E1E1E1E1E1E1E1E1E1E1E1E1E1E1E1E1E1E1E1E1E1E1E1E2E1E1E1E1E1E1E1E1E1E1E1E1E1E1E1E1E1E1E1E1E1E1E1E1E1E1E1E1E1E1E1E1E1E1E1E1E1E1E1E1E1E1E1E1E1E1E1E1E1E1E1E1E1E1E1E1E1E1
310
E1E1E1E1E1E1E1E1E1E1E1E1E1E1E1E1E1E1E1E1E1E1E1E1E1E1E1E1E1E1E1E1E2E1E1E1E1E1E1E1E1E1E1E1E1E1E1E1E1E1E1E1E1E1E1E1E1E1E1E1E1E1E1E1E1E1E1E1E1E1E1E1E1E1E1E1E1E1E1E1E1E1E1E1E1E1E1E1E1E1E1E1E1E1E1E1E1E1E1E1E1E1E1E1E1E1E1E1E1E1E1E1E1E1E1E1E1E1E1E1E1E1E1E1E1E1E1
310
E1E1E1E1E1E1E1E1E1E1E1E1E1E1E1E1E1E1E1E1E1E1E1E1E2E1E1E1E1E1E1E1E1E1E1E1E1E1E1E1E2E1E1E1E1E1E1E1E1E1E1E1E1E1E1E1E1E1E1E1E1E1E1E1E1E1E1E1E1E1E2E1E1E1E1E1E1E1E1E1E1E1E1E1E1E1E1E1E1E1E1E1E1E1E1E1E1E1E1E1E1E1E1E1E1E1E1E1E1E1E1E1E1E1E1E1E1E1E1E1E1E1E1E1E1E1E1
310
E1E1E1E1E1E1E1E1E1E1E1E1E1E1E1E1E1E1E1E1E1E1E1E1E1E1E1E1E1E1E1E1E1E1E2E1E1E1E1E1E1E1E1E1E1E1E1E1E1E1E1E1E1E1E1E1E1E1E1E1E1E1E1E1E1E1E1E1E1E1E1E1E1E1E1E1E1E1E1E1E1E1E1E1E1E1E1E1E1E1E1E1E1E1E1E1E1E1E1E1E1E1E1E1E1E1E1E1E1E1E1E1E1E1E1E1E1E1E1E1E1E1E1E1E1E1E1
310
E1E1E1E1E1E1E1E1E1E1E1E1E1E1E1E1E1E1E1E1E1E1E1E1E1E1E2E1E1E1E1E1E1E1E1E1E1E1E1E1E1E1E2E1E1E1E1E1E1E1E1E1E1E1E1E1E1E1E1E1E1E1E1E1E1E1E1E1E1E1E1E1E2E1E1E1E1E1E1E1E1E1E1E1E1E1E1E1E1E1E1E1E1E1E1E1E1E1E1E1E1E1E1E1E1E1E1E1E1E1E1E1E1E1E1E1E1E1E1E1E1E1E1E1E1E1E1
310
E1E1E1E1E1E1E1E1E1E1E1E1E1E1E1E1E1E1E1E1E1E1E1E1E1E1E1E1E1E1E1E1E1E1E1E1E2E1E1E1E1E1E1E1E1E1E1E1E1E1E1E1E1E1E1E1E1E1E1E1E1E1E1E1E1E1E1E1E1E1E1E1E1E1E1E1E1E1E1E1E1E1E1E1E1E1E1E1E1E1E1E1E1E1E1E1E1E1E1E1E1E1E1E1E1E1E1E1E1E1E1E1E1E1E1E1E1E1E1E1E1E1E1E1E1E1E1
310
E1E1E1E1E1E1E1E1E1E1E1E1E1E1E1E1E1E1E1E1E1E1E1E1E1E1E1E1E2E1E1E1E1E1E1E1E1E1E1E1E1E1E1E1E2E1E1E1E1E1E1E1E1E1E1E1E1E1E1E1E1E1E1E1E1E1E1E1E1E1E1E1E1E1E2E1E1E1E1E1E1E1E1E1E1E1E1E1E1E1E1E1E1E1E1E1E1E1E1E1E1E1E1E1E1E1E1E1E1E1E1E1E1E1E1E1E1E1E1E1E1E1E1E1E1E1E1
310
E1E1E1E1E1E1E1E1E1E1E1E1E1E1E1E1E1E1E1E1E1E1E1E1E1E1E1E1E1E1E1E1E1E1E1E1E1E1E2E1E1E1E1E1E1E1E1E1E1E1E1E1E1E1E1E1E1E1E1E1E1E1E1E1E1E1E1E1E1E1E1E1E1E1E1E1E1E1E1E1E1E1E1E1E1E1E1E1E1E1E1E1E1E1E1E1E1E1E1E1E1E1E1E1E1E1E1E1E1E1E1E1E1E1E1E1E1E1E1E1E1E1E1E1E1E1E1
310
E1E1E1E1E1E1E1E1E1E1E1E1E1E1E1E1E1E1E1E1E1E1E1E1E1E1E1E1E1E1E2E1E1E1E1E1E1E1E1E1E1E1E1E1E1E1E2E1E1E1E1E1E1E1E1E1E1E1E1E1E1E1E1E1E1E1E1E1E1E1E1E1E1E1E1E1E2E1E1E1E1E1E1E1E1E1E1E1E1E1E1E1E1E1E1E1E1E1E1E1E1E1E1E1E1E1E1E1E1E1E1E1E1E1E1E1E1E1E1E1E1E1E1E1E1E1E1
310
E1E1E1E1E1E1E1E1E1E1E1E1E1E1E1E1E1E1E1E1E1E1E1E1E1E1E1E1E1E1E1E1E1E1E1E1E1E1E1E1E2E1E1E1E1E1E1E1E1E1E1E1E1E1E1E1E1E1E1E1E1E1E1E1E1E1E1E1E1E1E1E1E1E1E1E1E1E1E1E1E1E1E1E1E1E1E1E1E1E1E1E1E1E1E1E1E1E1E1E1E1E1E1E1E1E1E1E1E1E1E1E1E1E1E1E1E1E1E1E1E1E1E1E1E1E1E1
310
E1E1E1E1E1E1E1E1E1E1E1E1E1E1E1E1E1E1E1E1E1E1E1E1E1E1E1E1E1E1E1E1E2E1E1E1E1E1E1E1E1E1E1E1E1E1E1E1E2E1E1E1E1E1E1E1E1E1E1E1E1E1E1E1E1E1E1E1E1E1E1E1E1E1E1E1E1E1E2E1E1E1E1E1E1E1E1E1E1E1E1E1E1E1E1E1E1E1E1E1E1E1E1E1E1E1E1E1E1E1E1E1E1E1E1E1E1E1E1E1E1E1E1E1E1E1E1
310
E1E1E1E1E1E1E1E1E1E1E1E1E1E1E1E1E1E1E1E1E1E1E1E1E1E1E1E1E1E1E1E1E1E1E1E1E1E1E1E1E1E1E2E1E1E1E1E1E1E1E1E1E1E1E1E1E1E1E1E1E1E1E1E1E1E1E1E1E1E1E1E1E1E1E1E1E1E1E1E1E1E1E1E1E1E1E1E1E1E1E1E1E1E1E1E1E1E1E1E1E1E1E1E1E1E1E1E1E1E1E1E1E1E1E1E1E1E1E1E1E1E1E1E1E1E1E1
310
E1E1E1E1E1E1E1E1E1E1E1E1E1E1E1E1E1E1E1E1E1E1E1E1E1E1E1E1E1E1E1E1E1E1E2E1E1E1E1E1E1E1E1E1E1E1E1E1E1E1E2E1E1E1E1E1E1E1E1E1E1E1E1E1E1E1E1E1E1E1E1E1E1E1E1E1E1E1E1E1E2E1E1E1E1E1E1E1E1E1E1E1E1E1E1E1E1E1E1E1E1E1E1E1E1E1E1E1E1E1E1E1E1E2E2E1E1E1E1E1E1E1E2E2E1E1E1
310
E1E1E1E1E1E1E2E1E1E1E1E1E1E1E1E1E1E1E1E1E1E1E1E1E1E1E1E1E1E1E1E1E1E1E1E1E1E1E1E1E1E1E1E1E2E1E1E1E1E1E1E1E1E1E1E1E1E1E1E1E1E1E1E1E1E1E1E1E1E1E1E1E1E1E1E1E1E1E1E1E1E1E1E1E1E1E1E1E1E1E1E1E1E1E1E1E1E1E1E1E1E1E1E1E1E1E1E1E1E1E1E1E1E1E1E1E1E1E1E1E1E1E1E1E1E1E1
310
E1E1E1E1E1E1E1E1E1E1E1E1E1E1E1E1E1E1E1E1E1E1E1E1E1E1E1E1E1E1E1E1E1E1E1E1E2E1E1E1E1E1E1E1E1E1E1E1E1E1E1E1E2E1E1E1E1E1E1E1E1E1E1E1E1E1E1E1E1E1E1E1E1E1E1E1E1E1E1E1E1E1E2E1E1E1E1E1E1E1E1E1E1E1E1E1E1E1E1E1E1E1E1E1E1E1E1E1E1E1E1E1E1E1E1E2E2E1E1E1E1E1E1E1E2E2E1
310
E1E1E1E1E1E1E1E2E2E2E1E1E1E1E1E1E1E1E1E1E1E1E1E1E1E1E1E1E1E1E1E1E1E1E1E1E1E1E1E1E1E1E1E1E1E1E2E1E1E1E1E1E1E1E1E1E1E1E1E1E1E1E1E1E1E1E1E1E1E1E1E1E1E1E1E1E1E1E1E1E1E1E1E1E1E1E1E1E1E1E1E1E1E1E1E1E1E1E1E1E1E1E1E1E1E1E1E1E1E1E1E1E1E1E1E1E1E1E1E1E1E1E1E1E1E1E1
310
E1E1E1E1E1E1E1E1E1E1E1E1E1E1E1E1E1E1E1E1E1E1E1E1E1E1E1E1E1E1E1E1E1E1E1E1E1E1E2E1E1E1E1E1E1E1E1E1E1E1E1E1E1E1E2E1E1E1E1E1E1E1E1E2E2E1E1E1E1E1E1E1E1E1E1E1E1E1E1E1E1E1E1E1E2E1E1E1E1E1E1E1E1E1E1E1E1E1E1E1E1E1E1E1E1E1E1E1E1E1E1E1E1E1E1E1E1E2E2E1E1E1E1E1E1E1E2
310
E2E1E1E1E1E1E1E1E1E2E2E2E1E1E1E1E1E1E1E1E1E1E1E1E1E1E1E1E1E1E1E1E1E1E1E1E1E1E1E1E1E1E1E1E1E1E1E1E2E1E1E1E1E1E1E1E1E1E1E1E1E1E1E1E1E1E1E1E1E1E1E1E1E1E1E1E1E1E1E1E1E1E1E1E1E1E1E1E1E1E1E1E1E1E1E1E1E1E1E1E1E1E1E1E1E1E1E1E1E1E1E1E1E1E1E1E1E1E1E1E1E1E1E1E1E1E1
310
E1E1E1E1E1E1E1E1E1E1E1E1E1E1E1E1E1E1E1E1E1E1E1E1E1E1E1E1E1E1E1E1E1E1E1E1E1E1E1E1E2E1E1E1E1E1E1E1E1E1E1E1E1E1E1E1E2E1E1E1E1E1E1E1E1E2E2E1E1E1E1E1E1E1E1E1E1E1E1E1E1E1E1E1E1E1E2E1E1E1E1E1E1E1E1E1E1E1E1E1E1E1E1E1E1E1E1E1E1E1E1E1E1E1E1E1E1E1E1E2E2E1E1E1E1E1E1
310
E1E2E2E1E1E1E1E1E1E1E1E2E2E2E1E1E1E1E1E1E1E1E1E1E1E1E1E1E1E1E1E1E1E1E1E1E1E1E1E1E1E1E1E1E1E1E1E1E1E1E2E1E1E1E1E1E1E1E1E1E1E1E1E1E1E1E1E1E1E1E1E1E1E1E1E1E1E1E1E1E1E1E1E1E1E1E1E1E1E1E1E1E1E1E1E1E1E1E1E1E1E1E1E1E1E1E1E1E1E1E1E1E1E1E1E1E1E1E1E1E1E1E1E1E1E1E1
310
E1E1E1E1E1E1E1E1E1E1E1E1E1E1E1E1E1E1E1E1E1E1E1E1E1E1E1E1E1E1E1E1E1E1E1E1E1E1E1E1E1E1E2E1E1E1E1E1E1E1E1E1E1E1E1E1E1E1E2E1E1E1E1E1E1E1E1E2E2E1E1E1E1E1E1E1E1E1E1E1E1E1E1E1E1E1E1E1E2E1E1E1E1E1E1E1E1E1E1E1E1E1E1E1E1E1E1E1E1E1E1E1E1E1E1E1E1E1E1E1E1E2E2E1E1E1E1
310
E1E1E1E2E2E1E1E1E1E1E1E1E1E2E2E2E1E1E1E1E1E1E1E1E1E1E1E1E1E1E1E1E1E1E1E1E1E1E1E1E1E1E1E1E1E1E1E1E1E1E1E1E2E1E1E1E1E1E1E1E1E1E1E1E1E1E1E1E1E1E1E1E1E1E1E1E1E1E1E1E1E1E1E1E1E1E1E1E1E1E1E1E1E1E1E1E1E1E1E1E1E1E1E1E1E1E1E1E1E1E1E1E1E1E1E1E1E2E2E2E2E2E2E2E2E2E2
310
E2E2E2F0F0F0F0F0F0E2E1E1E1E1E1E1E1E1E1E1E1E1E1E1E2E2F0F0E2E1E1E1E1E1E1E1E1E1E1E1E1E1E1E1E2E1E1E1E1E1E1E1E1E1E1E1E1E1E1E1E2E1E1E1E1E1E1E1E1E2E2E1E1E1E1E1E1E1E1E1E1E1E1E1E1E1E1E1E1E1E2E1E1E1E1E1E1E1E1E1E1E1E1E1E1E1E1E1E1E1E1E1E1E1E1E1E1E1E1E1E1E1E1E2E2E1E1
310
E1E1E1E1E1E2E2E1E1E1E1E1E1E1E1E2E2E2E1E1E1E1E1E1E1E1E1E1E1E1E1E1E1E1E1E1E1E1E1E1E1E1E1E1E1E1E1E1E1E1E1E1E1E1E2E1E1E1E1E1E1E1E1E1E1E1E1E1E1E1E1E1E1E1E1E1E1E1E1E1E1E1E1E1E1E1E1E1E1E1E1E1E1E1E1E1E1E1E1E1E1E1E1E1E1E1E1E1E1E1E1E1E1E1E1E1E1E1E1E1E1E1E1E1E1E1E1
310
E1E1E1E1E1E1E1E1E1E1E1E1E1E1E1E1E1E1E1E1E1E1E1E1E1E1E2E1E1E1E2E1E1E1E1E1E1E1E1E1E1E1E1E1E1E1E2E1E1E1E1E1E1E1E1E1E1E1E1E1E1E1E2E1E1E1E1E1E1E1E1E2E2E1E1E1E1E1E2E2E1E1E1E1E1E1E1E1E1E1E1E1E2E1E1E1E1E1E1E1E1E1E1E1E1E1E1E1E1E1E1E1E1E1E1E1E1E1E1E1E1E1E1E1E1E2E2
310
E1E1E1E1E1E1E1E2E2E1E1E1E1E1E1E1E1E2E2E2E1E1E1E1E1E1E1E1E1E1E1E1E1E1E1E1E1E1E1E1E1E1E1E1E1E1E1E1E1E1E1E1E1E1E1E1E2E1E1E1E1E1E1E1E1E1E1E1E1E1E1E1E1E1E1E1E1E1E1E1E1E1E1E1E1E1E1E1E1E1E1E1E1E1E1E1E1E1E1E1E1E1E1E1E1E1E1E1E1E1E1E1E1E1E1E1E1E1E1E1E1E1E1E1E1E1E1
310
E1E1E1E1E1E1E1E1E1E1E1E1E1E1E1E1E1E1E1E1E1E1E1E1E1E1E1E1E2E1E2E2E2E1E1E1E1E1E1E1E1E1E1E1E1E1E1E1E2E1E1E1E1E1E1E1E1E1E1E1E1E1E1E1E2E1E1E1E1E1E1E1E1E2E2E1E1E1E1E1E2E2E1E1E1E1E1E1E1E1E1E1E1E1E2E1E1E1E1E1E1E1E1E1E1E1E1E1E1E1E1E1E1E1E1E1E1E1E1E1E1E1E1E1E1E1E1
310
E2E2E1E1E1E1E1E1E1E2E2E1E1E1E1E1E1E1E1E2E2E2E1E1E1E1E1E1E1E1E1E1E1E1E1E1E1E1E1E1E1E1E1E1E1E1E1E1E1E1E1E1E1E1E1E1E1E1E2E1E1E1E1E1E1E1E1E1E1E1E1E1E1E1E1E1E1E1E1E1E1E1E1E1E1E1E1E1E1E1E1E1E1E1E1E1E1E1E1E1E1E1E1E1E1E1E1E1E1E1E1E1E1E1E1E1E1E1E1E1E1E1E1E1E1E1E1
310
E1E1E1E1E1E1E1E1E1E1E1E1E1E1E1E1E1E1E1E1E1E1E1E1E1E1E1E1E1E1E2E1E2E2E2E1E1E1E1E1E1E1E1E1E1E1E1E1E1E1E2E1E1E1E1E1E1E1E1E1E1E1E1E1E1E1E2E1E1E1E1E1E1E1E1E2E2E1E1E1E1E1E2E2E1E1E1E1E1E1E1E1E1E1E1E1E2E1E1E1E1E1E1E1E1E1E1E1E1E1E1E1E1E1E1E1E1E1E1E1E1E1E1E1E1E1E1
310
E1E1E2E2E1E1E1E1E1E1E1E2E2E1E1E1E1E1E1E1E1E2E2E2E1E1E1E1E1E1E1E1E1E1E1E1E1E1E1E1E1E1E1E1E1E1E1E1E1E1E1E1E1E1E1E1E1E1E1E1E2E1E1E1E1E1E1E1E1E1E1E1E1E1E1E1E1E1E1E1E1E1E1E1E1E1E1E1E1E1E1E1E1E1E1E1E1E1E1E1E1E1E1E1E1E1E1E1E1E1E1E1E1E1E1E1E1E1E1E1E1E1E1E1E1E1E1
310
E1E1E1E1E1E1E1E1E1E1E1E1E1E1E1E1E1E1E1E1E1E1E1E1E1E1E1E1E1E1E1E1E2E1E1E1E2E1E1E1E1E1E1E1E1E1E1E1E1E1E1E1E2E1E1E1E1E1E1E1E1E1E1E1E1E1E1E1E2E1E1E1E1E1E1E1E1E2E2E1E1E1E1E1E2E2E1E1E1E1E1E1E1E1E1E1E1E1E2E1E1E1E1E1E1E1E1E1E1E1E1E1E1E1E1E1E1E1E1E1E1E1E1E1E1E1E1
310
E1E1E1E1E2E2E1E1E1E1E1E1E1E2E2E1E1E1E1E1E1E1E1E2E2E2E1E1E1E1E1E1E1E1E1E1E1E1E1E1E1E1E1E1E1E1E1E1E1E1E1E1E1E1E1E1E1E1E1E1E1E1E2E1E1E1E1E1E1E1E1E1E1E1E1E1E1E1E1E1E1E1E1E1E1E1E1E1E1E1E1E1E1E1E1E1E1E1E1E1E1E1E1E1E1E1E1E1E1E1E1E1E1E1E1E1E1E1E1E1E1E1E1E1E1E1E1
310
E1E1E1E1E1E1E1E1E1E1E1E1E1E1E1E1E1E1E1E1E1E1E1E1E1E1E1E1E1E1E1E1E1E1E2E2E2E2E2E1E1E1E1E1E1E1E1E1E1E1E1E1E1E1E2E1E1E1E1E1E1E1E1E1E1E1E1E1E1E1E2E1E1E1E1E1E1E1E1E2E2E1E1E2E2E1E2E2E1E1E1E1E1E1E1E1E1E1E1E1E2E1E1E1E1E1E1E1E1E1E1E1E1E1E1E1E1E1E1E1E1E1E1E1E1E1E1
310
E1E1E1E1E1E1E2E2E1E1E1E1E1E1E1E2E2E1E1E1E1E1E1E1E1E2E2E2E1E1E1E1E1E1E1E1E1E1E1E1E1E1E1E1E1E1E1E1E1E1E1E1E1E1E1E1E1E1E1E1E1E1E1E1E2E1E1E1E1E1E1E1E1E1E1E1E1E1E1E1E1E1E1E1E1E1E1E1E1E1E1E1E1E1E1E1E1E1E1E1E1E1E1E1E1E1E1E1E1E1E1E1E1E1E1E1E1E1E1E1E1E1E1E1E1E1E1
310
E1E1E1E1E1E1E1E1E1E1E1E1E1E1E1E1E1E1E1E1E1E1E1E1E1E1E1E1E1E1E1E1E1E1E1E1E1E1E1E1E1E1E1E1E1E1E1E1E1E1E1E1E1E1E1E1E2E1E1E1E1E1E1E1E1E1E1E1E1E1E1E1E2E1E1E1E1E1E1E1E1E2E2E2E2E2E2E2E2E2E1E1E1E1E1E1E1E1E1E1E1E1E2E1E1E1E1E1E1E1E1E1E1E1E1E1E1E1E1E1E1E1E1E1E1E1E1
310
E1E1E1E1E1E1E1E1E2E2E1E1E1E1E1E1E1E2E2E1E1E1E1E1E1E1E1E2E2E2E1E1E1E1E1E1E1E1E1E1E1E1E1E1E1E1E1E1E1E1E1E1E1E1E1E1E1E1E1E1E1E1E1E1E1E1E2E1E1E1E1E1E1E1E1E1E1E1E1E1E1E1E1E1E1E1E1E1E1E1E1E1E1E1E1E1E1E1E1E1E1E1E1E1E1E1E1E1E1E1E1E1E1E1E1E1E1E1E1E1E1E1E1E1E1E1E1
310
E1E1E1E1E1E1E1E1E1E1E1E1E1E1E1E1E1E1E1E1E1E1E1E1E1E1E1E1E1E1E1E1E1E1E1E1E1E1E1E1E1E1E1E1E1E1E1E1E1E1E1E1E1E1E1E1E1E1E2E1E1E1E1E1E1E1E1E1E1E1E1E1E1E1E2E1E1E1E1E1E1E1E1E2E2E2E1E2E2E1E2E2E2E1E1E1E1E1E1E1E1E1E1E1E2E1E1E1E1E1E1E1E1E1E1E1E1E1E1E1E1E1E1E1E1E1E1
310
E1E1E1E1E1E1E2E2E2E2E2E2E2E2E1E1E1E1E1E2E2E2E2E2E2E2E2E2E2E2E2E2E1E1E1E1E1E1E1E1E1E1E1E1E1E1E1E1E1E1E1E1E1E1E1E1E1E1E1E1E1E1E1E1E1E1E1E1E2E1E1E1E1E1E1E1E1E1E1E1E1E1E1E1E1E1E1E1E1E1E1E1E1E1E1E1E1E1E1E1E1E1E1E1E1E1E1E1E1E1E1E1E1E1E1E1E1E1E1E1E1E1E1E1E1E1E1
310
E1E1E1E1E1E1E1E1E1E1E1E1E1E1E1E1E1E1E1E1E1E1E1E1E1E1E1E1E1E1E1E1E1E1E1E1E1E1E1E1E1E1E1E1E1E1E1E1E1E1E1E1E1E1E1E1E1E1E1E1E2E1E1E1E1E1E1E1E1E1E1E1E1E1E1E1E2E1E1E1E1E1E1E1E1E2E2E1E1E2E2E2E2E1E2E2E2E1E1E1E1E1E1E1E1E1E2E1E1E1E1E1E1E1E1E1E1E1E1E1E1E1E1E1E1E1E1
310
E1E1E1E1E1E1E1E1E2E1E1E1E2E2E1E2E1E1E1E1E1E2E2E2E2E2E2E2E2E2E2E2E2E2E1E1E1E1E1E1E1E1E1E1E1E1E1E1E1E1E1E1E1E1E1E1E1E1E1E1E1E1E1E1E1E1E1E1E1E1E2E1E1E1E1E1E1E1E1E1E1E1E1E1E1E1E1E1E1E1E1E1E1E1E1E1E1E1E1E1E1E1E1E1E1E1E1E1E1E1E1E1E1E1E1E1E1E1E1E1E1E1E1E1E1E1E1
310
E1E1E1E1E1E1E1E1E1E1E1E1E1E1E1E1E1E1E1E1E1E1E1E1E1E1E1E1E1E1E1E1E1E1E1E1E1E1E1E1E1E1E1E1E1E1E1E1E1E1E1E1E1E1E1E1E1E1E1E1E1E1E2E1E1E1E1E1E1E1E1E1E1E1E1E1E1E1E2E1E1E1E1E1E1E1E1E2E2E2E2E2E2E2E2E2E2E2E2E1E1E1E1E1E1E1E1E1E2E1E1E1E1E1E1E1E1E1E1E1E1E1E1E1E1E1E1
310
E1E1E1E1E1E1E1E1E1E1E2E1E1E1E2E2E1E2E1E1E1E1E1E2E2E2E2E1E1E1E1E1E2E2E2E2E1E1E1E1E1E1E1E1E1E1E1E1E1E1E1E1E1E1E1E1E1E1E1E1E1E1E1E1E1E1E1E1E1E1E1E1E2E1E1E1E1E1E1E1E1E1E1E1E1E1E1E1E1E1E1E1E1E1E1E1E1E1E1E1E1E1E1E1E1E1E1E1E1E1E1E1E1E1E1E1E1E1E1E1E1E1E1E1E1E1E1
310
E1E1E1E1E1E1E1E1E1E1E1E1E1E1E1E1E1E1E1E1E1E1E1E1E1E1E1E1E1E1E1E1E1E1E1E1E1E1E1E1E1E1E1E1E1E1E1E1E1E1E1E1E1E1E1E1E1E1E1E1E1E1E1E1E2E1E1E1E1E1E1E1E1E1E1E1E1E1E1E1E2E1E1E1E1E1E1E1E1E2E2E2E2E2E1E1E2E2E2E2E2E1E1E1E1E1E1E1E1E1E2E1E1E1E1E1E1E1E1E1E1E1E1E1E1E1E1
310
E1E1E1E1E1E1E1E1E1E1E1E1E2E1E1E1E2E2E1E2E1E1E1E1E1E2E2E1E2E2E2E2E2E2E2E2E2E2E1E1E1E1E1E1E1E1E1E1E1E1E1E1E1E1E1E1E1E1E1E1E1E1E1E1E1E1E1E1E1E1E1E1E1E1E2E1E1E1E1E1E1E1E1E1E1E1E1E1E1E1E1E1E1E1E1E1E1E1E1E1E1E1E1E1E1E1E1E1E1E1E1E1E1E1E1E1E1E1E1E1E1E1E1E1E1E1E1
310
E1E1E1E1E1E1E1E1E1E1E1E1E1E1E1E1E1E1E1E1E1E1E1E1E1E1E1E1E1E1E1E1E1E1E1E1E1E1E1E1E1E1E1E1E1E1E1E1E1E1E1E1E1E1E1E1E1E1E1E1E1E1E1E1E1E1E2E1E1E1E1E1E1E1E1E1E1E1E1E1E1E1E2E1E1E1E1E1E1E1E1E2E1E1E1E1E2E2E2E2E2E2E2E1E1E1E1E1E1E1E1E1E2E1E1E1E1E1E1E1E1E1E1E1E1E1E1
310
E1E1E1E1E1E1E1E1E1E1E1E1E1E1E2E2E2E2E2E2E2E2E1E1E1E1E1E2E2E2E2E2E2E2E2E2E2E2E2E2E1E1E1E1E1E1E1E1E1E1E1E1E1E1E1E1E1E1E1E1E1E1E1E1E1E1E1E1E1E1E1E1E1E1E1E1E2E1E1E1E1E1E1E1E1E1E1E1E1E1E1E1E1E1E1E1E1E1E1E1E1E1E1E1E1E1E1E1E1E1E1E1E1E1E1E1E1E1E1E1E1E1E1E1E1E1E1
310
E1E1E1E1E1E1E1E1E1E1E1E1E1E1E1E1E1E1E1E1E1E1E1E1E1E1E1E1E1E1E1E1E1E1E1E1E1E1E1E1E1E1E1E1E1E1E1E1E1E1E1E1E1E1E1E1E1E1E1E1E1E1E1E1E1E1E1E1E2E1E1E1E1E1E1E1E1E1E1E1E1E1E1E1E2E1E1E1E1E1E1E1E1E1E1E1E1E1E1E2E1E1E2E2E1E1E1E1E1E1E1E1E1E1E2E1E1E1E1E1E1E1E1E1E1E1E1
310
E1E1E1E1E1E1E1E1E1E1E1E1E1E1E1E1E1E1E1E1E1E1E1E1E1E1E1E1E1E1E1E1E1E1E1E1E1E1E1E1E1E1E1E1E1E1E1E1E1E1E1E1E1E1E1E1E1E1E1E1E1E1E1E1E1E1E1E1E1E1E1E1E1E1E1E1E1E1E2E1E1E1E1E1E1E1E1E1E1E1E1E1E1E1E1E1E1E1E1E1E1E1E1E1E1E1E1E1E1E1E1E1E1E1E1E1E1E1E1E1E1E1E1E1E1E1E1
310
E1E1E1E1E1E1E1E1E1E1E1E1E1E1E1E1E1E1E1E1E1E1E1E1E1E1E1E1E1E1E1E1E1E1E1E1E1E1E1E1E1E1E1E1E1E1E1E1E1E1E1E1E1E1E1E1E1E1E1E1E1E1E1E1E1E1E1E1E1E1E2E1E1E1E1E1E1E1E1E1E1E1E1E1E1E1E2E1E1E1E1E1E1E1E1E1E1E1E1E1E1E2E2E2E2E1E1E1E1E1E1E1E1E1E1E1E2E1E1E1E1E1E1E1E1E1E1
310
E1E1E1E1E1E1E1E1E1E1E1E1E1E1E1E1E1E1E1E1E1E1E1E1E1E1E1E1E1E1E1E1E1E1E1E1E1E1E1E1E1E1E1E1E1E1E1E1E1E1E1E1E1E1E1E1E1E1E1E1E1E1E1E1E1E1E1E1E1E1E1E1E1E1E1E1E1E1E1E1E2E1E1E1E1E1E1E1E1E1E1E1E1E1E1E1E1E1E1E1E1E1E1E1E1E1E1E1E1E1E1E1E1E1E1E1E1E1E1E1E1E1E1E1E1E1E1
310
E1E1E1E1E1E1E1E1E1E1E1E1E1E1E1E1E1E1E1E1E1E1E1E1E1E1E1E1E1E1E1E1E1E1E1E1E1E1E1E1E1E1E1E1E1E1E1E1E1E1E1E1E1E1E1E1E1E1E1E1E1E1E1E1E1E1E1E1E1E1E1E1E2E1E1E1E1E1E1E1E1E1E1E1E1E1E1E1E2E1E1E1E1E1E1E1E1E1E1E1E1E1E1E2E2E2E1E1E1E1E1E1E1E1E1E1E1E1E2E1E1E1E1E1E1E1E1
310
E1E1E1E1E1E1E1E1E1E1E1E1E1E1E1E1E1E1E1E1E1E1E1E1E1E1E1E1E1E1E1E1E1E1E1E1E1E1E1E1E1E1E1E1E1E1E1E1E1E1E1E1E1E1E1E1E1E1E1E1E1E1E1E1E1E1E1E1E1E1E1E1E1E1E1E1E1E1E1E1E1E1E2E1E1E1E1E1E1E1E1E1E1E1E1E1E1E1E1E1E1E1E1E1E1E1E1E1E1E1E1E1E1E1E1E1E1E1E1E1E1E1E1E1E1E1E1
310
E1E1E1E1E1E1E1E1E1E1E1E1E1E1E1E1E1E1E1E1E1E1E1E1E1E1E1E1E1E1E1E1E1E1E1E1E1E1E1E1E1E1E1E1E1E1E1E1E1E1E1E1E1E1E1E1E1E1E1E1E1E1E1E1E1E1E1E1E1E1E1E1E1E1E2E1E1E1E1E1E1E1E1E1E1E1E1E1E1E1E2E1E1E1E1E1E1E1E1E1E1E1E1E1E1E1E1E1E1E1E1E1E1E1E1E1E1E1E1E1E2E1E1E1E1E1E1
310
E1E1E1E1E1E1E1E1E1E1E1E1E1E1E1E1E1E1E1E1E1E1E1E1E1E1E1E1E1E1E1E1E1E1E1E1E1E1E1E1E1E1E1E1E1E1E1E1E1E1E1E1E1E1E1E1E1E1E1E1E1E1E1E1E1E1E1E1E1E1E1E1E1E1E1E1E1E1E1E1E1E1E1E1E2E1E1E1E1E1E1E1E1E1E1E1E1E1E1E1E1E1E1E1E1E1E1E1E1E1E1E1E1E1E1E1E1E1E1E1E1E1E1E1E1E1E1
310
E1E1E1E1E1E1E1E1E1E1E1E1E1E1E1E1E1E1E1E1E1E1E2E2E2E2E2E2E2E2E2E2E2E2E2E2E2E2E2E2E2E2E1E1E1E1E1E1E1E1E1E1E1E1E1E1E1E1E1E1E1E1E1E1E1E1E1E1E1E1E1E1E1E1E1E1E2E1E1E1E1E1E1E1E1E1E1E1E1E1E1E1E2E1E1E1E1E1E1E1E1E1E1E1E1E1E1E1E1E1E1E1E1E1E1E1E1E1E1E1E1E1E2E1E1E1E1
310
E1E1E1E1E1E1E1E1E1E1E1E1E1E1E1E1E1E1E1E1E1E1E1E1E1E1E1E1E1E1E1E1E1E1E1E1E1E1E1E1E1E1E1E1E1E1E1E1E1E1E1E1E1E1E1E1E1E1E1E1E1E1E1E1E1E1E1E1E1E1E1E1E1E1E1E1E1E1E1E1E1E1E1E1E1E1E2E1E1E1E1E1E1E1E1E1E1E1E1E1E1E1E1E1E1E1E1E1E1E1E1E1E1E1E1E1E1E1E1E1E1E1E1E1E1E1E1
310
E1E1E1E1E1E1E1E1E1E1E1E1E1E1E1E1E1E1E1E1E1E1E1E1E1E1E1E1E1E1E1E1E1E1E1E1E1E1E1E1E1E1E1E2E1E1E1E1E1E1E1E1E1E1E1E1E1E1E1E1E1E1E1E1E1E1E1E1E1E1E1E1E1E1E1E1E1E1E2E1E1E1E1E1E1E1E1E1E1E1E1E1E1E1E2E1E1E1E1E1E1E1E1E1E1E1E1E1E1E1E1E1E1E1E1E1E1E1E1E1E1E1E1E1E2E1E1
310
E1E1E1E1E1E1E1E1E1E1E1E1E1E1E1E1E1E1E1E1E1E1E1E1E1E1E1E1E1E1E1E1E1E1E1E1E1E1E1E1E1E1E1E1E1E1E1E1E1E1E1E1E1E1E1E1E1E1E1E1E1E1E1E1E1E1E1E1E1E1E1E1E1E1E1E1E1E1E1E1E1E1E1E1E1E1E1E1E2E1E1E1E1E1E1E1E1E1E1E1E1E1E1E1E1E1E1E1E1E1E1E1E1E1E1E1E1E1E1E1E1E1E1E1E1E1E1
310
E1E1E1E1E1E1E1E1E1E1E1E1E1E1E1E1E1E1E1E1E1E1E1E1E1E1E1E1E1E1E1E1E1E1E1E1E1E1E1E2E2E2E2E2E2E2E1E1E1E1E1E1E1E1E1E1E1E1E1E1E1E1E1E1E1E1E1E1E1E1E1E1E1E1E1E1E1E1E1E1E2E1E1E1E1E1E1E1E1E1E1E1E1E1E1E1E2E1E1E1E1E1E1E1E1E1E1E1E1E1E1E1E1E1E1E1E1E1E1E1E1E1E1E1E1E1E2
310
E1E1E1E1E1E1E1E1E1E1E1E1E1E1E1E1E1E1E1E1E1E1E1E1E1E1E1E1E1E1E1E1E1E1E1E1E1E1E1E1E1E1E2E2E2E2E2E2E2E2E2E2E2E1E1E1E1E1E1E1E1E1E1E1E1E1E1E1E1E1E1E1E1E1E1E1E1E1E1E1E1E1E1E1E1E1E1E1E1E1E2E1E1E1E1E1E1E1E1E1E1E1E1E1E1E1E1E1E1E1E1E1E1E1E1E1E1E1E1E1E1E1E1E1E1E1E1
310
E1E1E1E1E1E1E1E1E1E1E1E1E1E1E1E1E1E1E1E1E1E1E1E1E1E1E1E1E1E1E1E1E1E1E1E1E1E1E1E1E1E2E2E2E2E2E2E2E1E1E1E1E1E1E1E1E1E1E1E1E1E1E1E1E1E1E1E1E1E1E1E1E1E1E1E1E1E1E1E1E1E1E2E1E1E1E1E1E1E1E1E1E1E1E1E1E1E1E2E1E1E1E1E1E1E1E1E1E1E1E1E1E1E1E1E1E1E1E1E1E1E1E1E1E1E1E1
310
E1E2E1E1E1E1E1E1E1E1E1E1E1E1E1E1E1E1E1E1E1E1E1E1E1E1E1E1E1E1E1E1E1E1E1E1E1E1E1E1E1E1E1E2E2E1E1E1E1E1E1E1E1E1E2E1E1E1E1E1E1E1E1E1E1E1E1E1E1E1E1E1E1E1E1E1E1E1E1E1E1E1E1E1E1E1E1E1E1E1E1E1E2E1E1E1E1E1E1E1E1E1E1E1E1E1E1E1E1E1E1E1E1E1E1E1E1E1E1E1E1E1E1E1E1E1E1
310
E1E1E1E1E1E1E1E1E1E1E1E1E1E1E1E1E1E1E1E1E1E1E1E1E1E1E1E1E1E1E2E2E2E2E2E2E2E2E2E2E2E2E2E2E2E2E2E2E2E2E1E1E1E1E1E1E1E1E1E1E1E1E1E1E1E1E1E1E1E1E1E1E1E1E1E1E1E1E1E1E1E1E1E1E2E1E1E1E1E1E1E1E1E1E1E1E1E1E1E1E2E1E1E1E1E1E1E1E1E1E1E1E1E1E1E1E1E1E1E1E1E1E1E1E1E1E1
310
E1E1E1E2E1E1E1E1E1E1E1E1E1E1E1E1E1E1E1E1E1E1E1E1E1E1E1E1E1E1E1E1E1E1E1E1E1E1E1E1E1E1E1E1E1E2E2E1E1E1E1E1E1E1E1E2E2E2E1E1E1E1E1E1E1E1E1E1E1E1E1E1E1E1E1E1E1E1E1E1E1E1E1E1E1E1E1E1E1E1E1E1E1E1E2E1E1E1E1E1E1E1E1E1E1E1E1E1E1E1E1E1E1E1E1E1E1E1E1E1E1E1E1E1E1E1E1
310
E1E1E1E1E1E1E1E1E1E1E1E1E1E1E1E1E1E1E1E1E1E1E1E1E1E1E1E1E1E1E1E1E1E1E1E1E1E1E1E1E1E1E1E1E1E1E1E1E1E1E1E1E1E1E1E1E1E1E1E1E1E1E1E1E1E1E1E1E1E1E1E1E1E1E1E1E1E1E1E1E1E1E1E1E1E1E2E1E1E1E1E1E1E1E1E1E1E1E1E1E1E1E2E1E1E1E1E1E1E1E1E1E1E1E1E1E1E1E1E1E1E1E1E1E1E1E1
310
E1E1E1E1E1E2E1E1E1E1E1E1E1E1E1E1E1E1E1E1E1E1E1E1E1E1E1E1E1E1E1E1E1E1E1E1E1E1E1E1E1E1E1E1E1E1E1E1E2E1E1E1E1E1E1E1E1E1E2E1E1E1E1E1E1E1E1E1E1E1E1E1E1E1E1E1E1E1E1E1E1E1E1E1E1E1E1E1E1E1E1E1E1E1E1E1E2E1E1E1E1E1E1E1E1E1E1E1E1E1E1E1E1E1E1E1E1E1E1E1E1E1E1E1E1E1E1
310
E1E1E1E1E1E1E1E1E1E1E1E1E1E1E1E1E1E1E1E1E1E1E1E1E1E1E1E1E1E1E1E1E1E1E1E1E1E1E1E1E1E1E1E1E1E1E1E1E1E1E1E1E1E1E1E1E1E1E1E1E1E1E1E1E1E1E1E1E1E1E1E1E1E1E1E1E1E1E1E1E1E1E1E1E1E1E1E1E2E1E1E1E1E1E1E1E1E1E1E1E1E1E1E1E2E1E1E1E1E1E1E1E1E1E1E1E1E1E1E1E1E1E1E1E1E1E1
310
E1E1E1E1E1E1E1E2E1E1E1E1E1E1E1E1E1E1E1E1E1E1E1E1E1E1E1E1E1E1E1E1E1E1E1E1E1E1E1E1E1E1E1E1E1E1E1E1E1E1E2E1E1E1E1E1E1E1E1E1E2E1E1E1E1E1E1E1E1E1E1E1E1E1E1E1E1E1E1E1E1E1E1E1E1E1E1E1E1E1E1E1E1E1E1E1E1E1E2E1E1E1E1E1E1E1E1E1E1E1E1E1E1E1E1E1E1E1E1E1E1E1E1E1E1E1E1
310
E1E1E1E1E1E1E1E1E1E1E1E1E1E1E1E1E1E1E1E1E1E1E1E1E1E1E1E1E1E1E1E1E1E1E1E1E1E1E1E1E1E1E1E1E1E1E1E1E1E1E1E1E1E1E1E1E1E1E1E1E1E1E1E1E1E1E1E1E1E1E1E1E1E1E1E1E1E1E1E1E1E1E1E1E1E1E1E1E1E1E2E1E1E1E1E1E1E1E1E1E1E1E1E1E1E1E2E1E1E1E1E1E1E1E1E1E1E1E1E1E1E1E1E1E1E1E1
310
E1E1E1E1E1E1E1E1E1E2E1E1E1E1E1E1E1E1E1E1E1E1E1E1E1E1E1E1E1E1E1E1E1E1E1E1E1E1E1E1E1E1E1E1E1E1E1E1E1E1E1E1E2E1E1E1E1E1E1E1E1E1E2E1E1E1E1E1E1E1E1E1E1E1E1E1E1E1E1E1E1E1E1E1E1E1E1E1E1E1E1E1E1E1E1E1E1E1E1E1E2E1E1E1E1E1E1E1E1E1E1E1E1E1E1E1E1E1E1E1E1E1E1E1E1E1E1
310
E1E1E1E1E1E1E1E1E1E1E1E1E1E1E1E1E1E1E1E1E1E1E1E1E1E1E1E1E1E1E1E1E1E1E1E1E1E1E1E1E1E1E1E1E1E1E1E1E1E1E1E1E1E1E1E1E1E1E1E1E1E1E1E1E1E1E1E1E1E1E1E1E1E1E1E1E1E1E1E1E1E1E1E1E1E1E1E1E1E1E1E1E2E1E1E1E1E1E1E1E1E1E1E1E1E1E1E1E2E1E1E1E1E1E1E1E1E1E1E1E1E1E1E1E1E1E1
310
E1E1E1E1E1E1E1E1E1E1E1E2E1E1E1E1E1E1E1E1E1E1E1E1E1E1E1E1E1E1E1E1E1E1E1E1E1E1E1E1E1E1E1E1E1E1E1E1E1E1E1E1E1E1E2E1E1E1E1E1E1E1E1E1E2E1E1E1E1E1E1E1E1E1E1E1E1E1E1E1E1E1E1E1E1E1E1E1E1E1E1E1E1E1E1E1E1E1E1E1E1E1E2E1E1E1E1E1E1E1E1E1E1E1E1E1E1E1E1E1E1E1E1E1E1E1E1
310
E1E1E1E1E1E1E1E1E1E1E1E1E1E1E1E1E1E1E1E1E1E1E1E1E1E1E1E1E1E1E1E1E1E1E1E1E1E1E1E1E1E1E1E1E1E1E1E1E1E1E1E1E1E1E1E1E1E1E1E1E1E1E1E1E1E1E1E1E1E1E1E1E1E1E1E1E1E1E1E1E1E1E1E1E1E1E1E1E1E1E1E1E1E1E2E1E1E1E1E1E1E1E1E1E1E1E1E1E1E1E2E1E1E1E1E1E1E1E1E1E1E1E1E1E1E1E1
310
E1E1E1E1E1E1E1E1E1E1E1E1E1E2E1E1E1E1E1E1E1E1E1E1E1E1E1E1E1E1E1E1E1E1E1E1E1E1E1E1E1E1E1E1E1E1E1E1E1E1E1E1E1E1E1E1E2E2E2E2E2E2E2E2E2E2E2E1E1E1E1E1E1E1E1E1E1E1E1E1E1E1E1E1E1E1E1E1E1E1E1E1E1E1E1E1E1E1E1E1E1E1E1E1E2E1E1E1E1E1E1E1E1E1E1E1E1E1E1E1E1E1E1E1E1E1E1
310
E1E1E1E1E1E1E1E1E1E1E1E1E1E1E1E1E1E1E1E1E1E1E1E1E1E1E1E1E1E1E1E1E1E1E1E1E1E1E1E1E1E1E1E1E1E1E1E1E1E1E1E1E1E1E1E1E1E1E1E1E1E1E1E1E1E1E1E1E1E1E1E1E1E1E1E1E1E1E1E1E1E1E1E1E1E1E1E1E1E1E1E1E1E1E1E1E2E1E1E1E1E1E1E1E1E1E1E1E1E1E1E1E2E1E1E1E1E1E1E1E1E1E1E1E1E1E1
310
E1E1E1E1E1E1E1E1E1E1E1E1E1E1E1E2E1E1E1E1E1E1E1E1E1E1E1E1E1E1E1E1E1E1E1E1E1E1E1E1E1E1E1E1E1E1E1E1E1E1E1E1E1E1E1E1E1E1E1E1E1E1E1E1E1E1E1E1E1E1E1E1E1E1E1E1E1E1E1E1E1E1E1E1E1E1E1E1E1E1E1E1E1E1E1E1E1E1E1E1E1E1E1E1E1E1E2E1E1E1E1E1E1E1E1E1E1E1E1E1E1E1E1E1E1E1E1
310
E1E1E1E1E1E1E1E1E1E1E1E1E1E1E1E1E1E1E1E1E1E1E1E1E1E1E1E1E1E1E1E1E1E1E1E1E1E1E1E1E1E1E1E1E1E1E1E1E1E1E1E1E1E1E1E1E1E1E1E1E1E1E1E1E1E1E1E1E1E1E1E1E1E1E1E1E1E1E1E1E1E1E1E1E1E1E1E1E1E1E1E1E1E1E1E1E1E1E2E1E1E1E1E1E1E1E1E1E1E1E1E1E1E1E2E1E1E1E1E1E1E1E1E1E1E1E1
310
E1E1E1E1E1E1E1E1E1E1E1E1E1E1E1E1E1E2E1E1E1E1E1E1E1E1E1E1E1E1E1E1E1E1E1E1E1E1E1E1E1E1E1E1E1E1E1E1E1E1E1E1E1E1E1E1E1E1E1E1E1E1E1E1E1E1E1E1E1E1E1E1E1E1E1E1E1E1E1E1E1E1E1E1E1E1E1E1E1E1E1E1E1E1E1E1E1E1E1E1E1E1E1E1E1E1E1E1E2E1E1E1E1E1E1E1E1E1E1E1E1E1E1E1E1E1E1
310
E1E1E1E1E1E1E1E1E1E1E1E1E1E1E1E1E1E1E1E1E1E1E1E1E1E1E1E1E1E1E1E1E1E1E1E1E1E1E1E1E1E1E1E1E1E1E1E1E1E1E1E1E1E1E1E1E1E1E1E1E1E1E1E1E1E1E1E1E1E1E1E1E1E1E1E1E1E1E1E1E1E1E1E1E1E1E1E1E1E1E1E1E1E1E1E1E1E1E1E1E2E1E1E1E1E1E1E1E1E1E1E1E1E1E1E1E2E1E1E1E1E1E1E1E1E1E1
310
E1E1E1E1E1E1E1E1E1E1E1E1E1E1E1E1E1E1E1E2E1E1E1E1E1E1E1E1E1E1E1E1E1E1E1E1E1E1E1E1E1E1E1E1E1E1E1E1E1E1E1E1E1E1E1E1E1E1E1E1E1E1E1E1E1E1E1E1E1E1E1E1E1E1E1E1E1E1E1E1E1E1E1E1E1E1E1E1E1E1E1E1E1E1E1E1E1E1E1E1E1E1E1E1E1E1E1E1E1E1E2E1E1E1E1E1E1E1E1E1E1E1E1E1E1E1E1
310
E1E1E1E1E1E1E1E1E1E1E1E1E1E1E1E1E1E1E1E1E1E1E1E1E1E1E1E1E1E1E1E1E1E1E1E1E1E1E1E1E1E1E1E1E1E1E1E1E1E1E1E1E1E1E1E1E1E1E1E1E1E1E1E1E1E1E1E1E1E1E1E1E1E1E1E1E1E1E1E1E1E1E1E1E1E1E1E1E1E1E1E1E1E1E1E1E1E1E1E1E1E1E2E1E1E1E1E1E1E1E1E1E1E1E1E1E1E1E2E1E1E1E1E1E1E1E1
310
E1E1E1E1E1E1E1E1E1E1E1E1E1E1E1E1E1E1E1E1E1E2E1E1E1E1E1E1E1E1E1E1E1E1E1E1E1E1E1E1E1E1E1E1E1E1E1E1E1E1E1E1E1E1E1E1E1E1E1E1E1E1E1E1E1E1E1E1E1E1E1E1E1E1E1E1E1E1E1E1E1E1E1E1E1E1E1E1E1E1E1E1E1E1E1E1E1E1E1E1E1E1E1E1E1E1E1E1E1E1E1E1E2E1E1E1E1E1E1E1E1E1E1E1E1E1E1
310
E1E1E1E1E1E1E1E1E1E1E1E1E1E1E1E1E1E1E1E1E1E1E1E1E1E1E1E1E1E1E1E1E1E1E1E1E1E1E1E1E1E1E1E1E1E1E1E1E1E1E1E1E1E1E1E1E1E1E1E1E1E1E1E1E1E1E1E1E1E1E1E1E1E1E1E1E1E1E1E1E1E1E1E1E1E1E1E1E1E1E1E1E1E1E1E1E1E1E1E1E1E1E1E1E2E1E1E1E1E1E1E1E1E1E1E1E1E1E1E1E2E1E1E1E1E1E1
310
E1E1E1E1E1E1E1E1E1E1E1E1E1E1E1E1E1E1E1E1E1E1E1E2E1E1E1E1E1E1E1E1E1E1E1E1E1E1E1E1E1E1E1E1E1E1E1E1E1E1E1E1E1E1E1E1E1E1E1E1E1E1E1E1E1E1E1E1E1E1E1E1E1E1E1E1E1E1E1E1E1E1E1E1E1E1E1E1E1E1E1E1E1E1E1E1E1E1E1E1E1E1E1E1E1E1E1E1E1E1E1E1E1E1E2E1E1E1E1E1E1E1E1E1E1E1E1
310
E1E1E1E1E1E1E1E1E1E1E1E1E1E1E1E1E1E1E1E1E1E1E1E1E1E1E1E1E1E1E1E1E1E1E1E1E1E1E1E1E1E1E1E1E1E1E1E1E1E1E1E1E1E1E1E1E1E1E1E1E1E1E1E1E1E1E1E1E1E1E1E1E1E1E1E1E1E1E1E1E1E1E1E1E1E1E1E1E1E1E1E1E1E1E1E1E1E1E1E1E1E1E1E1E1E1E2E1E1E1E1E1E1E1E1E1E1E1E1E1E1E1E2E1E1E1E1
310
E1E1E1E1E1E1E1E1E1E1E1E1E1E1E1E1E1E1E1E1E1E1E1E1E1E2E1E1E1E1E1E1E1E1E1E1E1E1E1E1E1E1E1E1E1E1E1E1E1E1E1E1E1E1E1E1E1E1E1E1E1E1E1E1E1E1E1E1E1E1E1E1E1E1E1E1E1E1E1E1E1E1E1E1E1E1E1E1E1E1E1E1E1E1E1E1E1E1E1E1E1E1E1E1E1E1E1E1E1E1E1E1E1E1E1E1E2E1E1E1E1E1E1E1E1E1E1
310
E1E1E1E1E1E1E1E1E1E1E1E1E1E1E1E1E1E1E1E1E1E1E1E1E1E1E1E1E1E1E1E1E1E1E1E1E1E1E1E1E1E1E1E1E1E1E1E1E1E1E1E1E1E1E1E1E1E1E1E1E1E1E1E1E1E1E1E1E1E1E1E1E1E1E1E1E1E1E1E1E1E1E1E1E1E1E1E1E1E1E1E1E1E1E1E1E1E1E1E1E1E1E1E1E1E1E1E1E2E1E1E1E1E1E1E1E1E1E1E1E1E1E1E1E2E1E1
310
E1E1E1E1E1E1E1E1E1E1E1E1E1E1E1E1E1E1E1E1E1E1E1E1E1E1E1E2E1E1E1E1E1E1E1E1E1E1E1E1E1E1E1E1E1E1E1E1E1E1E1E1E1E1E1E1E1E1E1E1E1E1E1E1E1E1E1E1E1E1E1E1E1E1E1E1E1E1E1E1E1E1E1E1E1E1E1E1E1E1E1E1E1E1E1E1E1E1E1E1E1E1E1E1E1E1E1E1E1E1E1E1E1E1E1E1E1E1E2E1E1E1E1E1E1E1E1
310
E1E1E1E1E1E1E1E1E1E1E1E1E1E1E1E1E1E1E1E1E1E1E1E1E1E1E1E1E1E1E1E1E1E1E1E1E1E1E1E1E1E1E1E1E1E1E1E1E1E1E1E1E1E1E1E1E1E1E1E1E1E1E1E1E1E1E1E1E1E1E1E1E1E1E1E1E1E1E1E1E1E1E1E1E1E1E1E1E1E1E1E1E1E1E1E1E1E1E1E1E1E1E1E1E1E1E1E1E1E1E2E1E1E1E1E1E1E1E1E1E1E1E1E1E1E1E2
310
E1E1E1E1E1E1E1E1E1E1E1E1E1E1E1E1E1E1E1E1E1E1E1E1E1E1E1E1E1E2E1E1E1E1E1E1E1E1E1E1E1E1E1E1E1E1E1E1E1E1E1E1E1E1E1E1E1E1E1E1E1E1E1E1E1E1E1E1E1E1E1E1E1E1E1E1E1E1E1E1E1E1E1E1E1E1E1E1E1E1E1E1E1E1E1E1E1E1E1E1E1E1E1E1E1E1E1E1E1E1E1E1E1E1E1E1E1E1E1E1E2E1E1E1E1E1E1
310
E1E1E1E1E1E1E1E1E1E1E1E1E1E1E1E1E1E1E1E1E1E1E1E1E1E1E1E1E1E1E1E1E1E1E1E1E1E1E1E1E1E1E1E1E1E1E1E1E1E1E1E1E1E1E1E1E1E1E1E1E1E1E1E1E1E1E1E1E1E1E1E1E1E1E1E1E1E1E1E1E1E1E1E1E1E1E1E1E1E1E1E1E1E1E1E1E1E1E1E1E1E1E1E1E1E1E1E1E1E1E1E1E2E1E1E1E1E1E1E1E1E1E1E1E1E1E1
310
E1E2E1E1E1E1E1E1E1E1E1E1E1E1E1E1E1E1E1E1E1E1E1E1E1E1E1E1E1E1E1E2E1E1E1E1E1E1E1E1E1E1E1E1E1E1E1E1E1E1E1E1E1E1E1E1E1E1E1E1E1E1E1E1E1E1E1E1E1E1E1E1E1E1E1E1E1E1E1E1E1E1E1E1E1E1E1E1E1E1E1E1E1E1E1E1E1E1E1E1E1E1E1E1E1E1E1E1E1E1E1E1E1E1E1E1E1E1E1E1E1E1E2E1E1E1E1
310
E1E1E1E1E1E1E1E1E1E1E1E1E1E1E1E1E1E1E1E1E1E1E1E1E1E1E1E1E1E1E1E1E1E1E1E1E1E1E1E1E1E1E1E1E1E1E1E1E1E1E1E1E1E1E1E1E1E1E1E1E1E1E1E1E1E1E1E1E1E1E1E1E1E1E1E1E1E1E1E1E1E1E1E1E1E1E1E1E1E1E1E1E1E1E1E1E1E1E1E1E1E1E1E1E1E1E1E1E1E1E1E1E1E1E2E1E1E1E1E1E1E1E1E1E1E1E1
310
E1E1E1E2E1E1E1E1E1E1E1E1E1E1E1E1E1E1E1E1E1E1E1E1E1E1E1E1E1E1E1E1E1E2E1E1E1E1E1E1E1E1E1E1E1E1E1E1E1E1E1E1E1E1E1E1E1E1E1E1E1E1E1E1E1E1E1E1E1E1E1E1E1E1E1E1E1E1E1E1E1E1E1E1E1E1E1E1E1E1E1E1E1E1E1E1E1E1E1E1E1E1E1E1E1E1E1E1E1E1E1E1E1E1E1E1E1E1E1E1E1E1E1E1E2E1E1
310
E1E1E1E1E1E1E1E1E1E1E1E1E1E1E1E1E1E1E1E1E1E1E1E1E1E1E1E1E1E1E1E1E1E1E1E1E1E1E1E1E1E1E1E1E1E1E1E1E1E1E1E1E1E1E1E1E1E1E1E1E1E1E1E1E1E1E1E1E1E1E1E1E1E1E1E1E1E1E1E1E1E1E1E1E1E1E1E1E1E1E1E1E1E1E1E1E1E1E1E1E1E1E1E1E1E1E1E1E1E1E1E1E1E1E1E1E2E1E1E1E1E1E1E1E1E1E1
310
E1E1E1E1E1E2E1E1E1E1E1E1E1E1E1E1E1E1E1E1E1E1E1E1E1E1E1E1E1E1E1E1E1E1E1E2E1E1E1E1E1E1E1E1E1E1E1E1E1E1E1E1E1E1E1E1E1E1E1E1E1E1E1E1E1E1E1E1E1E1E1E1E1E1E1E1E1E1E1E1E1E1E1E1E1E1E1E1E1E1E1E1E1E1E1E1E1E1E1E1E1E1E1E1E1E1E1E1E1E1E1E1E1E1E1E1E1E1E1E1E1E1E1E1E1E1E2
310
E1E1E1E1E1E1E1E1E1E1E1E1E1E1E1E1E1E1E1E1E1E1E1E1E1E1E1E1E1E1E1E1E1E1E1E1E1E1E1E1E1E1E1E1E1E1E1E1E1E1E1E1E1E1E1E1E1E1E1E1E1E1E1E1E1E1E1E1E1E1E1E1E1E1E1E1E1E1E1E1E1E1E1E1E1E1E1E1E1E1E1E1E1E1E1E1E1E1E1E1E1E1E1E1E1E1E1E1E1E1E1E1E1E1E1E1E1E1E2E1E1E1E1E1E1E1E1
310
E1E1E1E1E1E1E1E2E1E1E1E1E1E1E1E1E1E1E1E1E1E1E1E1E1E1E1E1E1E1E1E1E1E1E1E1E1E2E1E1E1E1E1E1E1E1E1E1E1E1E1E1E1E1E1E1E1E1E1E1E1E1E1E1E1E1E1E1E1E1E1E1E1E1E1E1E1E1E1E1E1E1E1E1E1E1E1E1E1E1E1E1E1E1E1E1E1E1E1E1E1E1E1E1E1E1E1E1E1E1E1E1E1E1E1E1E1E1E1E1E1E1E1E1E1E1E1
310
E1E2E1E1E1E1E1E1E1E1E1E1E1E1E1E1E1E1E1E1E1E1E1E1E1E1E1E1E1E1E1E1E1E1E1E1E1E1E1E1E1E1E1E1E1E1E1E1E1E1E1E1E1E1E1E1E1E1E1E1E1E1E1E1E1E1E1E1E1E1E1E1E1E1E1E1E1E1E1E1E1E1E1E1E1E1E1E1E1E1E1E1E1E1E1E1E1E1E1E1E1E1E1E1E1E1E1E1E1E1E1E1E1E1E1E1E1E1E1E1E2E1E1E1E1E1E1
310
E1E1E1E1E1E1E1E1E1E2E1E2E2E2E2E2E2E2E2E2E1E1E1E1E1E1E1E1E1E1E1E1E1E1E1E1E1E1E1E2E1E1E2E2E2E2E2E1E1E1E1E1E1E1E1E1E1E1E1E1E1E1E1E1E1E1E1E1E1E1E1E1E1E1E1E1E1E1E1E1E1E1E1E1E1E1E1E1E1E1E1E1E1E1E1E1E1E1E1E1E1E1E1E1E1E1E1E1E1E1E1E1E1E1E1E1E1E1E1E1E1E1E1E1E1E1E1
310
E1E1E1E2E1E1E1E1E1E1E1E1E1E1E1E1E1E1E1E1E1E1E1E1E1E1E1E1E1E1E1E1E1E1E1E1E1E1E1E1E1E1E1E1E1E1E1E1E1E1E1E1E1E1E1E1E1E1E1E1E1E1E1E1E1E1E1E1E1E1E1E1E1E1E1E1E1E1E1E1E1E1E1E1E1E1E1E1E1E1E1E1E1E1E1E1E1E1E1E1E1E1E1E1E1E1E1E1E1E1E1E1E1E1E1E1E1E1E1E1E1E1E2E1E1E1E1
310
E1E1E1E1E1E1E1E1E1E1E1E2E1E2E2E2E2E2E2E2E2E2E1E1E1E1E1E1E1E1E1E1E1E1E1E1E1E1E1E1E1E2E1E1E2E2E2E2E2E1E1E1E1E1E1E1E1E1E1E1E1E1E1E1E1E1E1E1E1E1E1E1E1E1E1E1E1E1E1E1E1E1E1E1E1E1E1E1E1E1E1E1E1E1E1E1E1E1E1E1E1E1E1E1E1E1E1E1E1E1E1E1E1E1E1E1E1E1E1E1E1E1E1E1E1E1E1
310
E1E1E1E1E1E2E1E1E1E1E1E1E1E1E1E1E1E1E1E1E1E1E1E1E1E1E1E1E1E1E1E1E1E1E1E1E1E1E1E1E1E1E1E1E1E1E1E1E1E1E1E1E1E1E1E1E1E1E1E1E1E1E1E1E1E1E1E1E1E1E1E1E1E1E1E1E1E1E1E1E1E1E1E1E1E1E1E1E1E1E1E1E1E1E1E1E1E1E1E1E1E1E1E1E1E1E1E1E1E1E1E1E1E1E1E1E1E1E1E1E1E1E1E1E2E1E1
310
E1E1E1E1E1E1E1E1E1E1E1E1E1E2E1E1E1E1E1E1E1E1E1E1E1E1E1E1E1E1E1E1E1E1E1E1E1E1E1E1E1E1E1E2E1E1E1E1E1E1E1E1E1E1E1E1E1E1E1E1E1E1E1E1E1E1E1E1E1E1E1E1E1E1E1E1E1E1E1E1E1E1E1E1E1E1E1E1E1E1E1E1E1E1E1E1E1E1E1E1E1E1E1E1E1E1E1E1E1E1E1E1E1E1E1E1E1E1E1E1E1E1E1E1E1E1E1
310
E1E1E1E1E1E1E1E2E1E1E1E1E1E1E1E1E1E1E1E1E1E1E1E1E1E1E1E1E1E1E1E1E1E1E1E1E1E1E1E1E1E1E1E1E1E1E1E1E1E1E1E1E1E1E1E1E1E1E1E1E1E1E1E1E1E1E1E1E1E1E1E1E2E2E2E2E2E2E2E2E2E2E2E2E2E2E2E2E2E2E2E2E2E2E2E2E2E2E2E2E2E2E2E2E2E2E2E2E2E2E2E2E2E2E2E2E2E2E2E2E2E2E2E2E2E2E2
310
E1E1E1E1E1E1E1E1E1E1E1E1E1E1E1E2E2E2E2E2E2E2E2E2E2E2E2E2E2E2E2E2E2E2E2E2E2E2E2E2E2E2E2E2E2E2E2E2E2E2E2E2E2E2E2E2E2E2E2E2E2E2E2E2E2E2E2E2E2E2E2E2E2E2E2E2E2E2E2E2E2E2E2E2E2E2E2E2E2E2E2E2E2E2E2E2E2E2E2E2E2E2E2E2E2E2E2E2E2E2E2E2E2E2E2E2E2E2E2E2E2E2E2E2E2E2E2
310
E2E2E2E2E2E2E2E2E2E2E1E1E1E1E1E1E1E1E1E1E1E1E1E1E1E1E1E1E1E1E1E1E1E1E1E1E1E1E1E1E1E1E1E1E1E1E1E1E1E1E1E1E1E1E1E1E1E1E1E1E1E1E1E1E1E1E1E1E1E1E1E1E1E1E1E1E1E1E1E1E1E1E1E1E1E1E1E1E1E1E1E1E1E1E1E1E1E1E1E1E1E1E1E1E1E1E1E1E1E1E1E1E1E1E1E1E1E1E1E1E1E1E1E1E1E1E1
310
E1E2E1E1E1E1E1E1E1E1E1E1E1E1E1E1E1E2E1E1E1E1E1E1E1E1E1E1E1E1E1E1E1E1E1E1E1E1E1E1E1E1E1E1E1E1E1E2E1E1E1E1E1E1E1E1E1E1E1E1E1E1E1E1E1E1E1E1E1E1E1E1E1E1E1E1E1E1E1E1E1E1E1E1E1E1E1E1E1E1E1E1E1E1E1E1E1E1E1E1E1E1E1E1E1E1E1E1E1E1E1E1E1E1E1E1E1E1E1E1E1E1E1E1E1E1E1
310
E1E1E1E1E1E1E1E1E1E1E1E2E1E1E1E1E1E1E1E1E1E1E1E1E1E1E1E1E1E1E1E1E1E1E1E1E1E1E1E1E1E1E1E1E1E1E1E1E1E1E1E1E1E1E1E1E1E1E1E1E1E1E1E1E1E1E1E1E1E1E1E1E1E1E1E1E1E1E1E1E1E1E1E1E1E1E1E1E1E1E1E1E1E1E1E1E1E1E1E1E1E1E1E1E1E1E1E1E1E1E1E1E1E1E1E1E1E1E1E1E1E1E1E1E1E1E1
310
E1E1E1E2E1E1E1E1E1E1E1E1E1E1E1E1E1E1E1E2E1E1E1E1E1E1E2E1E1E1E2E2E2E2E2E2E2E2E2E2E2E2E2E2E2E2E1E1E1E2E1E1E1E1E1E1E1E1E2E1E1E1E1E1E1E1E1E1E1E1E1E1E1E1E1E1E1E1E1E1E1E1E1E1E1E1E1E1E1E1E1E1E1E1E1E1E1E1E1E1E1E1E1E1E1E1E1E1E1E1E1E1E1E1E1E1E1E1E1E1E1E1E1E1E1E1E1
310
E1E1E1E1E1E1E1E1E1E1E1E1E1E2E1E1E1E1E1E1E1E1E1E1E1E1E1E1E1E1E1E1E1E1E1E1E1E1E1E1E1E1E1E1E1E1E1E1E1E1E1E1E1E1E1E1E1E1E1E1E1E1E1E1E1E1E1E1E1E1E1E1E1E1E1E1E1E1E1E1E1E1E1E1E1E1E1E1E1E1E1E1E1E1E1E1E1E1E1E1E1E1E1E1E1E1E1E1E1E1E1E1E1E1E1E1E1E1E1E1E1E1E1E1E1E1E1
310
E1E1E1E1E1E2E1E1E1E1E1E1E1E1E1E1E1E1E1E1E1E2E1E2E2E2E2E2E2E2E2E1E2E2E2E2E2E2E2E2E2E2E2E2E2E2E2E2E1E1E1E2E1E2E2E2E2E2E2E1E2E2E2E2E2E2E1E2E2E2E2E2E2E2E2E1E2E2E2E2E2E2E2E2E2E2E2E1E1E1E1E1E1E1E1E1E1E1E1E1E1E1E1E1E1E1E1E1E1E1E1E1E1E1E1E1E1E1E1E1E1E1E1E1E1E1E1
310
E1E1E1E1E1E1E1E1E1E1E1E1E1E1E1E2E1E1E1E1E1E1E1E1E1E1E1E1E1E1E1E1E1E1E1E1E1E1E1E1E1E1E1E1E1E1E1E1E1E1E1E1E1E1E1E1E1E1E1E1E1E1E1E1E1E1E1E1E1E1E1E1E1E1E1E1E1E1E1E1E1E1E1E1E1E1E1E1E1E1E1E1E1E1E1E1E1E1E1E1E1E1E1E1E1E1E1E1E1E1E1E1E1E1E1E1E1E1E1E1E1E1E1E1E1E1E1
310
E1E1E1E1E1E1E1E2E1E1E1E1E1E1E1E1E1E1E1E1E1E1E1E2E1E2E2E2E2E2E2E2E2E1E2E2E2E2E2E2E2E2E2E2E2E2E2E2E2E2E1E1E1E2E1E2E2E2E2E2E2E2E2E2E2E2E2E2E1E2E2E2E2E2E2E2E2E1E2E2E1E2E2E2E1E2E2E1E2E1E1E1E1E1E1E1E1E1E1E1E1E1E1E1E1E1E1E1E1E1E1E1E1E1E1E1E1E1E1E1E1E1E1E1E1E1E1
310
E1E1E1E1E1E1E1E1E1E1E1E1E1E1E1E1E1E2E1E1E1E1E1E1E1E1E1E1E1E1E1E1E1E1E1E1E1E1E1E1E1E1E1E1E1E1E1E1E1E1E1E1E1E1E1E1E1E1E1E1E1E1E1E1E1E1E1E1E1E1E1E1E1E1E1E1E1E1E1E1E1E1E1E1E1E1E1E1E1E1E1E1E1E1E1E1E1E1E1E1E1E1E1E1E1E1E1E1E1E1E1E1E1E1E1E1E1E1E1E1E1E1E1E1E1E1E1
310
E1E1E1E1E1E1E1E1E1E2E1E1E1E1E1E1E1E1E1E1E1E1E1E1E1E2E1E2E2E2E2E2E1E1E1E1E1E1E1E1E1E1E1E1E1E1E1E1E1E1E1E1E1E1E1E2E1E2E1E1E1E1E1E1E2E1E1E2E2E1E1E2E1E1E1E2E2E1E1E1E2E2E2E2E2E2E1E2E2E2E2E1E1E1E1E1E1E1E1E1E1E1E1E1E1E1E1E1E1E1E1E1E1E1E1E1E1E1E1E1E1E1E1E1E1E1E1
310
E1E1E1E1E1E1E1E1E1E1E1E1E1E1E1E1E1E1E1E2E1E1E1E1E1E1E1E1E1E1E1E1E1E1E1E1E1E1E1E1E1E1E1E1E1E1E1E1E1E1E1E1E1E1E1E1E1E1E1E1E1E1E1E1E1E1E1E1E1E1E1E1E1E1E1E1E1E1E1E1E1E1E1E1E1E1E1E1E1E1E1E1E1E1E1E1E1E1E1E1E1E1E1E1E1E1E1E1E1E1E1E1E1E1E1E1E1E1E1E1E1E1E1E1E1E1E1
310
E1E1E1E1E1E1E1E1E1E1E1E2E1E1E1E1E1E1E1E1E1E1E1E1E1E1E1E2E1E1E1E1E1E1E1E1E1E1E1E1E1E1E1E1E1E1E1E1E1E1E1E1E1E1E1E1E1E2E1E1E1E1E1E1E1E1E1E1E1E1E1E1E1E1E1E1E1E1E1E1E1E1E1E1E1E1E1E1E1E1E1E1E1E1E1E1E1E1E1E1E1E1E1E1E1E1E1E1E1E1E1E1E1E1E1E1E1E1E1E1E1E1E1E1E1E1E1
310
E1E1E1E1E1E1E1E1E1E1E1E1E1E1E1E1E1E1E1E1E1E2E1E1E1E1E1E1E1E1E1E1E1E1E1E1E1E1E1E1E1E1E1E1E1E1E1E1E1E1E1E1E1E1E1E1E1E1E1E1E1E1E1E1E1E1E1E1E1E1E1E1E1E1E1E1E1E1E1E1E1E1E1E1E1E1E1E1E1E1E1E1E1E1E1E1E1E1E1E1E1E1E1E1E1E1E1E1E1E1E1E1E1E1E1E1E1E1E1E1E1E1E1E1E1E1E1
310
E1E1E1E1E1E1E1E1E1E1E1E1E1E2E1E1E1E1E1E1E1E1E1E1E1E1E1E1E1E2E1E1E1E1E1E1E1E1E1E1E1E1E1E1E1E1E1E1E1E1E1E1E1E1E1E1E1E1E1E2E1E1E1E1E1E1E1E1E1E1E1E1E1E1E1E1E1E1E1E1E1E1E1E1E1E1E1E1E1E1E1E1E1E1E1E1E1E1E1E1E1E1E1E1E1E1E1E1E1E1E1E1E1E1E1E1E1E1E1E1E1E1E1E1E1E1E1
310
E1E1E1E1E1E1E1E1E1E1E1E1E1E1E1E1E1E1E1E1E1E1E1E2E1E1E1E1E1E1E1E1E1E1E1E1E1E1E1E1E1E1E1E1E1E1E1E1E1E1E1E1E1E1E1E1E1E1E1E1E1E1E1E1E1E1E1E1E1E1E1E1E1E1E1E1E1E1E1E1E1E1E1E1E1E1E1E1E2E2E2E2E2E2E2E2E2E2E2E2E2E2E2E2E2E2E2E2E2E2E2E2E2E2E2E2E2E2E2E2E2E2E2E2E2E2E2
310
E2E2E2E2E2E2E2E2E2E2E2E2E2E2E2E2E1E1E1E1E1E1E1E1E1E1E1E1E1E1E1E2E2E2E2E2E2E2E2E2E2E2E2E2E2E2E2E2E2E2E2E2E2E2E2E2E2E2E2E2E2E2E2E2E2E2E2E2E2E2E2E2E2E2E2E2E2E2E2E2E2E2E2E2E2E2E2E2E2E2E2E2E2E2E2E2E2E2E2E2E2E2E2E2E2E2E2E2E2E2E2E2E2E2E2E2E2E2E2E2E2E2E2E2E2E2E2
310
E2E2E2E2E2E2E2E2E2E2E2E2E2E2E2E2E2E2E2E2E2E2E2E2E2E2E1E1E1E1E1E1E1E1E1E1E1E1E1E1E1E1E1E1E1E1E1E1E1E1E1E1E1E1E1E1E1E1E1E1E1E1E1E1E1E1E1E1E1E1E1E1E1E1E1E1E1E1E1E1E1E1E1E1E1E1E1E1E1E1E1E1E1E1E1E1E1E1E1E1E1E1E1E1E1E1E1E1E1E1E1E1E1E1E1E1E1E1E1E1E1E1E1E1E1E1E1
310
E1E1E1E1E1E1E1E1E1E1E1E1E1E1E1E1E1E2E1E1E1E1E1E1E1E1E1E1E1E1E1E1E1E2E1E1E1E1E1E1E1E1E1E1E1E1E1E1E1E1E1E1E1E1E1E1E1E1E1E1E1E1E1E2E1E1E1E1E1E1E1E1E1E1E1E1E1E1E1E1E1E1E1E1E1E1E1E1E1E1E1E1E1E1E1E1E1E1E1E1E1E1E1E1E1E1E1E1E1E1E1E1E1E1E1E1E1E1E1E1E1E1E1E1E1E1E1
310
E1E1E1E1E1E1E1E1E1E1E1E1E1E1E1E1E1E1E1E1E1E1E1E1E1E1E1E2E1E1E1E1E1E1E1E1E1E1E1E1E1E1E1E1E1E1E1E1E1E1E1E1E1E1E1E1E1E1E1E1E1E1E1E1E1E1E1E1E1E1E1E1E1E1E1E1E1E1E1E1E1E1E1E1E1E1E1E1E1E1E1E1E1E1E1E1E1E1E1E1E1E1E1E1E1E1E1E1E1E1E1E1E1E1E1E1E1E1E1E1E1E1E1E1E1E1E1
310
E1E1E1E1E1E1E1E1E1E1E1E1E1E1E1E1E1E1E1E2E1E1E1E1E1E1E1E1E1E1E1E1E1E1E1E2E1E1E1E1E1E1E1E1E1E1E1E1E1E1E1E1E1E1E1E1E1E1E1E1E1E1E1E1E1E2E1E1E1E1E1E1E1E1E1E1E1E1E1E1E1E1E1E1E1E1E1E1E1E1E1E1E1E1E1E1E1E1E1E1E1E1E1E1E1E1E1E1E1E1E1E1E1E1E1E1E1E1E1E1E1E1E1E1E1E1E1
310
E1E1E1E1E1E1E1E1E1E1E1E1E1E1E1E1E1E1E1E1E1E1E1E1E1E1E1E1E1E2E1E1E1E1E1E1E1E1E1E1E1E1E1E1E1E1E1E1E1E1E1E1E1E1E1E1E1E1E1E1E1E1E1E1E1E1E1E1E1E1E1E1E1E1E1E1E1E1E1E1E1E1E1E1E1E1E1E1E1E1E1E1E1E1E1E1E1E1E1E1E1E1E1E1E1E1E1E1E1E1E1E1E1E1E1E1E1E1E1E1E1E1E1E1E1E1E1
310
E1E1E1E1E1E1E1E1E1E1E1E1E1E1E1E1E1E1E1E1E1E2E1E1E1E1E1E1E1E1E1E1E1E1E1E1E1E2E1E1E1E1E1E1E1E1E1E1E1E1E1E1E1E1E1E1E1E1E1E1E1E1E1E1E1E1E1E2E1E1E1E1E1E1E1E1E1E1E1E1E1E1E1E1E1E1E1E1E1E1E1E1E1E1E1E1E1E1E1E1E1E1E1E1E1E1E1E1E1E1E1E1E1E1E1E1E1E1E1E1E1E1E1E1E1E1E1
310
E1E1E1E1E1E1E1E1E1E1E1E1E1E1E1E1E1E1E1E1E1E1E1E1E1E1E1E1E1E1E1E2E1E1E1E1E1E1E1E1E1E1E1E1E1E1E1E1E1E1E1E1E1E1E1E1E1E1E1E1E1E1E1E1E1E1E1E1E1E1E1E1E1E1E1E1E1E1E1E1E1E1E1E1E1E1E1E1E1E1E1E1E1E1E1E1E1E1E1E1E1E1E1E1E1E1E1E1E1E1E1E1E1E1E1E1E1E1E1E1E1E1E1E1E1E1E1
310
E1E1E1E1E1E1E1E1E1E1E1E1E1E1E1E1E1E1E1E1E1E1E1E2E1E1E1E1E1E1E1E1E1E1E1E1E1E1E1E2E1E1E1E1E1E1E1E1E1E1E1E1E1E1E1E1E1E1E1E1E1E1E1E1E1E1E1E1E1E2E1E1E1E1E1E1E1E1E1E1E1E1E1E1E1E1E1E1E1E1E1E1E1E1E1E1E1E1E1E1E1E1E1E1E1E1E1E1E1E1E1E1E1E1E1E1E1E1E1E1E1E1E1E1E1E1E1
310
E1E1E1E1E1E1E1E1E1E1E1E1E1E1E1E1E1E1E1E1E1E1E1E1E1E1E1E1E1E1E1E1E1E2E1E1E1E1E1E1E1E1E1E1E1E1E1E1E1E1E1E1E1E1E1E1E1E1E1E1E1E1E1E1E1E1E1E1E1E1E1E1E1E1E1E1E1E1E1E1E1E1E1E1E1E1E1E1E1E1E1E1E1E1E1E1E1E1E1E1E1E1E1E1E1E1E1E1E1E1E1E1E1E1E1E1E1E1E1E1E1E1E1E1E1E1E1
310
E1E1E1E1E1E1E1E1E1E1E1E1E1E1E1E1E1E1E1E1E1E1E1E1E1E2E1E1E1E1E1E1E1E1E1E1E1E1E1E1E1E2E1E1E1E1E1E1E1E1E1E1E1E1E1E1E1E1E1E1E1E1E1E1E1E1E1E1E1E1E1E2E1E1E1E1E1E1E1E1E1E1E1E1E1E1E1E1E1E1E1E1E1E1E1E1E1E1E1E1E1E1E1E1E1E1E1E1E1E1E1E1E1E1E1E1E1E1E1E1E1E1E1E1E1E1E1
310
E1E1E1E1E1E1E1E1E1E1E1E1E1E1E1E1E1E1E1E1E1E1E1E1E1E1E1E1E1E1E1E1E1E1E1E2E1E1E1E1E1E1E1E1E1E1E1E1E1E1E1E1E1E1E1E1E1E1E1E1E1E1E1E1E1E1E1E1E1E1E1E1E1E1E1E1E1E1E1E1E1E1E1E1E1E1E1E1E1E1E1E1E1E1E1E1E1E1E1E1E1E1E1E1E1E1E1E1E1E1E1E1E1E1E1E1E1E1E1E1E1E1E1E1E1E1E1
310
E1E1E1E1E1E1E1E1E1E1E1E1E1E1E1E1E1E1E1E1E1E1E1E1E1E1E1E2E1E1E1E1E1E1E1E1E1E1E1E1E1E1E1E2E1E1E1E1E1E1E1E1E1E1E1E1E1E1E1E1E1E1E1E1E1E1E1E1E1E1E1E1E1E2E1E1E1E1E1E1E1E1E1E1E1E1E1E1E1E1E1E1E1E1E1E1E1E1E1E1E1E1E1E1E1E1E1E1E1E1E1E1E1E1E1E1E1E1E1E1E1E1E1E1E1E1E1
310
E1E1E1E1E1E1E1E1E1E1E1E1E1E1E1E1E1E1E1E1E1E1E1E1E1E1E1E1E1E1E1E1E1E1E1E1E1E2E1E1E1E1E1E1E1E1E1E1E1E1E1E1E1E1E1E1E1E1E1E1E1E1E1E1E1E1E1E1E1E1E1E1E1E1E1E1E1E1E1E1E1E1E1E1E1E1E1E1E1E1E1E1E1E1E1E1E1E1E1E1E1E1E1E1E1E1E1E1E1E1E1E1E1E1E1E1E1E1E1E1E1E1E1E1E1E1E1
310
E1E1E1E1E1E1E1E1E1E1E1E1E1E1E1E1E1E1E1E1E1E1E1E1E1E1E1E1E1E2E1E1E1E1E1E1E1E1E1E1E1E1E1E1E1E2E1E1E1E1E1E1E1E1E1E1E1E1E1E1E1E1E1E1E1E1E1E1E1E1E1E1E1E1E1E2E1E1E1E1E1E1E1E1E1E1E1E1E1E1E1E1E1E1E1E1E1E1E1E1E1E1E1E1E1E1E1E1E1E1E1E1E1E1E1E1E1E1E1E1E1E1E1E1E1E1E1
310
E1E1E1E1E1E1E1E1E1E1E1E1E1E1E1E1E1E1E1E1E1E1E1E1E1E1E1E1E1E1E1E1E1E1E1E1E1E1E1E2E1E1E1E1E1E1E1E1E1E1E1E1E1E1E1E1E1E1E1E1E1E1E1E1E1E1E1E1E1E1E1E1E1E1E1E1E1E1E1E1E1E1E1E1E1E1E1E1E1E1E1E1E1E1E1E1E1E1E1E1E1E1E1E1E1E1E1E1E1E1E1E1E1E1E1E1E1E1E1E1E1E1E1E1E1E1E1
310
E1E1E1E1E1E1E1E1E1E1E1E1E1E1E1E1E1E1E1E1E1E1E1E1E1E1E1E1E1E1E1E2E1E1E1E1E1E1E1E1E1E1E1E1E1E1E1E2E1E1E1E1E1E1E1E1E1E1E1E1E1E1E1E1E1E1E1E1E1E1E1E1E1E1E1E1E1E2E1E1E1E1E1E1E1E1E1E1E1E1E1E1E1E1E1E1E1E1E1E1E1E1E1E1E1E1E1E1E1E1E1E1E1E1E1E1E1E1E1E1E1E1E1E1E1E1E1
310
E1E1E1E1E1E1E1E1E1E1E1E1E1E1E1E1E1E1E1E1E1E1E1E1E1E1E1E1E1E1E1E1E1E1E1E1E1E1E1E1E1E2E1E1E1E1E1E1E1E1E1E1E1E1E1E1E1E1E1E1E1E1E1E1E1E1E1E1E1E1E1E1E1E1E1E1E1E1E1E1E1E1E1E1E1E1E1E1E1E1E1E1E1E1E1E1E1E1E1E1E1E1E1E1E1E1E1E1E1E1E1E1E1E1E1E1E1E1E1E1E1E1E1E1E1E1E1
310
E1E1E1E1E1E1E1E1E1E1E1E1E1E1E1E1E1E1E1E1E1E1E1E1E1E1E1E1E1E1E1E1E1E2E1E1E1E1E1E1E1E1E1E1E1E1E1E1E1E2E1E1E1E1E1E1E1E1E1E1E1E1E1E1E1E1E1E1E1E1E1E1E1E1E1E1E1E1E1E2E1E1E1E1E1E1E1E1E1E1E1E1E1E1E1E1E1E1E1E1E1E1E1E1E1E1E1E1E1E1E1E1E1E1E1E1E1E1E1E1E1E1E1E1E1E1E1
310
E1E1E1E1E1E1E1E1E1E1E1E1E1E1E1E1E1E1E1E1E1E1E1E1E1E1E1E1E1E1E1E1E1E1E1E1E1E1E1E1E1E1E1E2E1E1E1E1E1E1E1E1E1E1E1E1E1E1E1E1E1E1E1E1E1E1E1E1E1E1E1E1E1E1E1E1E1E1E1E1E1E1E1E1E1E1E1E1E1E1E1E1E1E1E1E1E1E1E1E1E1E1E1E1E1E1E1E1E1E1E1E1E1E1E1E1E1E1E1E1E1E1E1E1E1E1E1
310
E1E1E1E1E1E1E1E1E1E1E1E1E1E1E1E1E1E1E1E1E1E1E1E1E1E1E1E1E1E1E1E1E1E1E1E2E1E1E1E1E1E1E1E1E1E1E1E1E1E1E1E2E1E1E1E1E1E1E1E1E1E1E1E1E1E1E1E1E1E1E1E1E1E1E1E1E1E1E1E1E1E2E1E1E1E1E1E1E1E1E1E1E1E1E1E1E1E1E1E1E1E1E1E1E1E1E1E1E1E1E1E1E1E1E1E1E1E1E1E1E1E1E1E1E1E1E1
310
E1E1E1E1E1E1E1E1E1E1E1E1E1E1E1E1E1E1E1E1E1E1E1E1E1E1E1E1E1E1E1E1E1E1E1E1E1E1E1E1E1E1E1E1E1E2E1E1E1E1E1E1E1E1E1E1E1E1E1E1E1E1E1E1E1E1E1E1E1E1E1E1E1E1E1E1E1E1E1E1E1E1E1E1E1E1E1E1E1E1E1E1E1E1E1E1E1E1E1E1E1E1E1E1E1E1E1E1E1E1E1E1E1E1E1E1E1E1E1E1E1E1E1E1E1E1E1
310
E1E1E1E1E1E1E1E1E1E1E1E1E1E1E1E1E1E1E1E1E1E1E1E1E1E1E1E1E1E1E1E1E1E1E1E1E1E2E1E1E1E1E1E1E1E1E1E1E1E1E1E1E1E2E1E1E1E1E1E1E1E1E1E1E1E1E1E1E1E1E1E1E1E1E1E1E1E1E1E1E1E1E1E2E1E1E1E1E1E1E1E1E1E1E1E1E1E1E1E1E1E1E1E1E1E1E1E1E1E1E1E1E1E1E1E1E1E1E1E1E1E1E1E1E1E1E1
310
E1E1E1E1E1E1E1E1E1E1E1E1E1E1E1E1E1E1E1E1E1E1E1E1E1E1E1E1E1E1E1E1E1E1E1E1E1E1E1E1E1E1E1E1E1E1E1E2E1E1E1E1E1E1E1E1E1E1E1E1E1E1E1E1E1E1E1E1E1E1E1E1E1E1E1E1E1E1E1E1E1E1E1E1E1E1E1E1E1E1E1E1E1E1E1E1E1E1E1E1E1E1E1E1E1E1E1E1E1E1E1E1E1E1E1E1E1E1E1E1E1E1E1E1E1E1E1
310
E1E1E1E1E1E1E1E1E1E1E1E1E1E1E1E1E1E1E1E1E1E1E1E1E1E1E1E1E1E1E1E1E1E1E1E1E1E1E1E2E1E1E1E1E1E1E1E1E1E1E1E1E1E1E1E2E1E1E1E1E1E1E1E1E1E1E1E1E1E1E1E1E1E1E1E1E1E1E1E1E1E1E1E1E1E2E1E1E1E1E1E1E1E1E1E1E1E1E1E1E1E1E1E1E1E1E1E1E1E1E1E1E1E1E1E1E1E1E1E1E1E1E1E1E1E1E1
310
E1E1E1E1E1E1E1E1E1E1E1E1E1E1E1E1E1E1E1E1E1E1E1E1E1E1E1E1E1E1E1E1E1E1E1E1E1E1E1E1E1E1E1E1E1E1E1E1E1E2E1E1E1E1E1E1E1E1E1E1E1E1E1E1E1E1E1E1E1E1E1E1E1E1E1E1E1E1E1E1E1E1E1E1E1E1E1E1E1E1E1E1E1E1E1E1E1E1E1E1E1E1E1E1E1E1E1E1E1E1E1E1E1E1E1E1E1E1E1E1E1E1E1E1E1E1E1
310
E1E1E1E1E1E1E1E1E1E1E1E1E1E1E1E1E1E1E1E1E1E1E1E1E1E1E1E1E1E1E1E1E1E1E1E1E1E1E1E1E1E2E1E1E1E1E1E1E1E1E1E1E1E1E1E1E1E2E1E1E1E1E1E1E1E1E1E1E1E1E1E1E1E1E1E1E1E1E1E1E1E1E1E1E1E1E1E2E1E1E1E1E1E1E1E1E1E1E1E1E1E1E1E1E1E1E1E1E1E1E1E1E1E1E1E1E1E1E1E1E1E1E1E1E1E1E1
310
E1E1E1E1E1E1E1E1E1E1E1E1E1E1E1E1E1E1E1E1E1E1E1E1E1E1E1E1E1E1E1E1E1E1E1E1E1E1E1E1E1E1E1E1E1E1E1E1E1E1E1E2E1E1E1E1E1E1E1E1E1E1E1E1E1E1E1E1E1E1E1E1E1E1E1E1E1E1E1E1E1E1E1E1E1E1E1E1E1E1E1E1E1E1E1E1E1E1E1E1E1E1E1E1E1E1E1E1E1E1E1E1E1E1E1E1E1E1E1E1E1E1E1E1E1E1E1
310
E1E1E1E1E1E1E1E1E1E1E1E1E1E1E1E1E1E1E1E1E1E1E1E1E1E1E1E1E1E1E1E1E1E1E1E1E1E1E1E1E1E1E1E2E1E1E1E1E1E1E1E1E1E1E1E1E1E1E1E2E1E1E1E1E1E1E1E1E1E1E1E1E1E1E1E1E1E1E1E1E1E1E1E1E1E1E1E1E1E2E1E1E1E1E1E1E1E1E1E1E1E1E1E1E1E1E1E1E1E1E1E1E1E1E1E1E1E1E1E1E1E1E1E1E1E1E1
310
E1E1E1E1E1E1E1E1E1E1E1E1E1E1E1E1E1E1E1E1E1E1E1E1E1E1E1E1E1E1E1E1E1E1E1E1E1E1E1E1E1E1E1E1E1E1E1E1E1E1E1E1E1E2E1E1E1E1E1E1E1E1E1E1E1E1E1E1E1E1E1E1E1E1E1E1E1E1E1E1E1E1E1E1E1E1E1E1E1E1E1E1E1E1E1E1E1E1E1E1E1E1E1E1E1E1E1E1E1E1E1E1E1E1E1E1E1E1E1E1E1E1E1E1E1E1E1
310
E1E1E1E1E1E1E1E1E1E1E1E1E1E1E1E1E1E1E1E1E1E1E1E1E1E1E1E1E1E1E1E1E1E1E1E1E1E1E1E1E1E1E1E1E1E2E1E1E1E1E1E1E1E1E1E1E1E1E1E1E1E2E1E1E1E1E1E1E1E1E1E1E1E1E1E1E1E1E1E1E1E1E1E1E1E1E1E1E1E1E1E2E1E1E1E1E1E1E1E1E1E1E1E1E1E1E1E1E1E1E1E1E1E1E1E1E1E1E1E1E1E1E1E1E1E1E1
310
E1E1E1E1E1E1E1E1E1E1E1E1E1E1E1E1E1E1E1E1E1E1E1E1E1E1E1E1E1E1E1E1E1E1E1E1E1E1E1E1E1E1E1E1E1E1E1E1E1E1E1E1E1E1E1E2E1E1E1E1E1E1E1E1E1E1E1E1E1E1E1E1E1E1E1E1E1E1E1E1E1E1E1E1E1E1E1E1E1E1E1E1E1E1E1E1E1E1E1E1E1E1E1E1E1E1E1E1E1E1E1E1E1E1E1E1E1E1E1E1E1E1E1E1E1E1E1
310
E1E1E1E1E1E1E1E1E1E1E1E1E1E1E1E1E1E1E1E1E1E1E1E1E1E1E1E1E1E1E1E1E1E1E1E1E1E1E1E1E1E1E1E1E1E1E1E2E1E1E1E1E1E1E1E1E1E1E1E1E1E1E1E2E1E1E1E1E1E1E1E1E1E1E1E1E1E1E1E1E1E1E1E1E1E1E1E1E1E1E1E1E1E2E1E1E1E1E1E1E1E1E1E1E1E1E1E1E1E1E1E1E1E1E1E1E1E1E1E1E1E1E1E1E1E1E1
310
E1E1E1E1E1E1E1E1E1E1E1E1E1E1E1E1E1E1E1E1E1E1E1E1E1E1E1E1E1E1E1E1E1E1E1E1E1E1E1E1E1E1E1E1E1E1E1E1E1E1E1E1E1E1E1E1E1E2E1E1E1E1E1E1E1E1E1E1E1E1E1E1E1E1E1E1E1E1E1E1E1E1E1E1E1E1E1E1E1E1E1E1E1E1E1E1E1E1E1E1E1E1E1E1E1E1E1E1E1E1E1E1E1E1E1E1E1E1E1E1E1E1E1E1E1E1E1
310
E1E1E1E1E1E1E1E1E1E1E1E1E1E1E1E1E1E1E1E1E1E1E1E1E1E1E1E1E1E1E1E1E1E1E1E1E1E1E1E1E1E1E1E1E1E1E1E1E1E2E1E1E1E1E1E1E1E1E1E1E1E1E1E1E1E2E1E1E1E1E1E1E1E1E1E1E1E1E1E1E1E1E1E1E1E1E1E1E1E1E1E1E1E1E1E2E1E1E1E1E1E1E1E1E1E1E1E1E1E1E1E1E1E1E1E1E1E1E1E1E1E1E1E1E1E1E1
310
E1E1E1E1E1E2E2E2E2E2E2E2E1E1E1E1E1E1E1E1E1E1E1E1E1E1E1E1E1E1E1E1E1E1E1E1E1E1E1E1E1E1E1E1E1E1E1E1E1E1E1E1E1E1E1E1E1E1E1E2E1E1E1E1E1E1E1E1E1E1E1E1E1E1E1E1E1E1E1E1E1E1E1E1E1E1E1E1E1E1E1E1E1E1E1E1E1E1E1E1E1E1E1E1E1E1E1E1E1E1E1E1E1E1E1E1E1E1E1E1E1E1E1E1E1E1E1
310
E1E1E1E1E1E1E1E1E1E1E1E1E1E1E1E1E1E1E1E1E1E1E1E1E1E1E1E1E1E1E1E1E1E1E1E1E1E1E1E1E1E1E1E1E1E1E1E1E1E1E1E2E1E1E1E1E1E1E1E1E1E1E1E1E1E1E1E2E1E1E1E1E1E1E1E1E1E1E1E1E1E1E1E1E1E1E1E1E1E1E1E1E1E1E1E1E1E2E1E1E1E1E1E1E1E1E1E1E1E1E1E1E1E1E1E1E1E1E1E1E1E1E1E1E1E1E1
310
E1E1E1E1E1E1E1E2E1E1E1E1E1E2E1E1E1E1E1E1E1E1E1E1E1E1E1E1E1E1E1E1E1E1E1E1E1E1E1E1E1E1E1E1E1E1E1E1E1E1E1E1E1E1E1E1E1E1E1E1E1E2E1E1E1E1E1E1E1E1E1E1E1E1E1E1E1E1E1E1E1E1E1E1E1E1E1E1E1E1E1E1E1E1E1E1E1E1E1E1E1E1E1E1E1E1E1E1E1E1E1E1E1E1E1E1E1E1E1E1E1E1E1E1E1E1E1
310
E1E1E1E1E1E1E1E1E1E1E1E1E1E1E1E1E1E1E1E1E1E1E1E1E1E1E1E1E1E1E1E1E1E1E1E1E1E1E1E1E1E1E1E1E1E1E1E1E1E1E1E1E1E2E1E1E1E1E1E1E1E1E1E1E1E1E1E1E1E2E1E1E1E1E1E1E1E1E1E1E1E1E1E1E1E1E1E1E1E1E1E1E1E1E1E1E1E1E1E2E1E1E1E1E1E1E1E1E1E1E1E1E1E1E1E1E1E1E1E1E1E1E1E1E1E1E1
310
E1E1E1E1E1E1E1E1E1F0F0F0F0F0F0F0E1E1E1E1E1E1E1E1E1E1E1E1E1E1E1E1E1E1E1E1E1E1E1E1E1E1E1E1E1E1E1E1E1E1E1E1E1E1E1E1E1E1E1E1E1E1E1E2E1E1E1E1E1E1E1E1E1E1E1E1E1E1E1E1E1E1E1E1E1E1E1E1E1E1E1E1E1E1E1E1E1E1E1E1E1E1E1E1E1E1E1E1E1E1E1E1E1E1E1E1E1E1E1E1E1E1E1E1E1E1E1
310
E1E1E1E1E1E1E1E1E1E1E1E1E1E1E1E1E1E1E1E1E1E1E1E1E1E1E1E1E1E1E1E1E1E1E1E1E1E1E1E1E1E1E1E1E1E1E1E1E1E1E1E1E1E1E1E2E1E1E1E1E1E1E1E1E1E1E1E1E1E1E1E2E1E1E1E1E1E1E1E1E1E1E1E1E1E1E1E1E1E1E1E1E1E1E1E1E1E1E1E1E1E2E1E1E1E1E1E1E1E1E1E1E1E1E1E1E1E1E1E1E1E1E1E1E1E1E1
310
E1E1E1E1E1E1E1E1E1E1E1F0F0F0F0F0F0F0E1E1E1E1E1E1E1E1E1E1E1E1E1E1E1E1E1E1E1E1E1E1E1E1E1E1E1E1E1E1E1E1E1E1E1E1E1E1E1E1E1E1E1E1E1E1E1E2E1E1E1E1E1E1E1E1E1E1E1E1E1E1E1E1E1E1E1E1E1E1E1E1E1E1E1E1E1E1E1E1E1E1E1E1E1E1E1E1E1E1E1E1E1E1E1E1E1E1E1E1E1E1E1E1E1E1E1E1E1
310
E1E1E1E1E1E1E1E1E1E1E1E1E1E1E1E1E1E1E1E1E1E1E1E1E1E1E1E1E1E1E1E1E1E1E1E1E1E1E1E1E1E1E1E1E1E1E1E1E1E1E1E1E1E1E1E1E1E2E1E1E1E1E1E1E1E1E1E1E1E1E1E1E1E2E1E1E1E1E1E1E1E1E1E1E1E1E1E1E1E1E1E1E1E1E1E1E1E1E1E1E1E1E1E2E1E1E1E1E1E1E1E1E1E1E1E1E1E1E1E1E1E1E1E1E1E1E1
310
E1E1E1E1E1E1E1E1E1E1E1E1E1E2E1E1E1E1E1E2E1E1E1E1E1E1E1E1E1E1E1E1E1E1E1E1E1E1E1E1E1E1E1E1E1E1E1E1E1E1E1E1E1E1E1E1E1E1E1E1E1E1E1E1E1E1E1E2E1E1E1E1E1E1E1E1E1E1E1E1E1E1E1E1E1E1E1E1E1E1E1E1E1E1E1E1E1E1E1E1E1E1E1E1E1E1E1E1E1E1E1E1E1E1E1E1E1E1E1E1E1E1E1E1E1E1E1
310
E1E1E1E1E1
  0
XRECORD
  5
275A2
102
{ACAD_REACTORS
330
1A1
102
}
330
1A1
100
AcDbXrecord
280
     1
102
MATERIAL
148
0.0
149
0.0
149
0.0
 93
        0
 94
      127
282
     0
 72
     0
 77
     0
171
     0
175
     0
179
     0
273
     0
  0
XRECORD
  5
1A3
102
{ACAD_REACTORS
330
1A1
102
}
330
1A1
100
AcDbXrecord
280
     1
270
     1
271
     1
  0
XRECORD
  5
1A2
102
{ACAD_REACTORS
330
1A1
102
}
330
1A1
100
AcDbXrecord
280
     1
270
     1
271
     1
  0
XRECORD
  5
1A6
102
{ACAD_REACTORS
330
1A1
102
}
330
1A1
100
AcDbXrecord
280
     1
270
     1
271
     1
  0
XRECORD
  5
1A5
102
{ACAD_REACTORS
330
1A1
102
}
330
1A1
100
AcDbXrecord
280
     1
270
     1
271
     1
  0
XRECORD
  5
1A7
102
{ACAD_REACTORS
330
1A1
102
}
330
1A1
100
AcDbXrecord
280
     1
270
     1
271
     1
  0
XRECORD
  5
1A4
102
{ACAD_REACTORS
330
1A1
102
}
330
1A1
100
AcDbXrecord
280
     1
270
     1
271
     1
  0
XRECORD
  5
275A1
102
{ACAD_REACTORS
330
199
102
}
330
199
100
AcDbXrecord
280
     1
102
MATERIAL
148
0.0
149
0.0
149
0.0
 93
        0
 94
      127
282
     0
 72
     0
 77
     0
171
     0
175
     0
179
     0
273
     0
  0
XRECORD
  5
19B
102
{ACAD_REACTORS
330
199
102
}
330
199
100
AcDbXrecord
280
     1
270
     1
271
     1
  0
XRECORD
  5
19A
102
{ACAD_REACTORS
330
199
102
}
330
199
100
AcDbXrecord
280
     1
270
     1
271
     1
  0
XRECORD
  5
19E
102
{ACAD_REACTORS
330
199
102
}
330
199
100
AcDbXrecord
280
     1
270
     1
271
     1
  0
XRECORD
  5
19D
102
{ACAD_REACTORS
330
199
102
}
330
199
100
AcDbXrecord
280
     1
270
     1
271
     1
  0
XRECORD
  5
19F
102
{ACAD_REACTORS
330
199
102
}
330
199
100
AcDbXrecord
280
     1
270
     1
271
     1
  0
XRECORD
  5
19C
102
{ACAD_REACTORS
330
199
102
}
330
199
100
AcDbXrecord
280
     1
270
     1
271
     1
  0
XRECORD
  5
275A3
102
{ACAD_REACTORS
330
1A9
102
}
330
1A9
100
AcDbXrecord
280
     1
102
MATERIAL
148
0.0
149
0.0
149
0.0
 93
        0
 94
      127
282
     0
 72
     0
 77
     0
171
     0
175
     0
179
     0
273
     0
  0
XRECORD
  5
1AB
102
{ACAD_REACTORS
330
1A9
102
}
330
1A9
100
AcDbXrecord
280
     1
270
     1
271
     1
  0
XRECORD
  5
1AA
102
{ACAD_REACTORS
330
1A9
102
}
330
1A9
100
AcDbXrecord
280
     1
270
     1
271
     1
  0
XRECORD
  5
1AE
102
{ACAD_REACTORS
330
1A9
102
}
330
1A9
100
AcDbXrecord
280
     1
270
     1
271
     1
  0
XRECORD
  5
1AD
102
{ACAD_REACTORS
330
1A9
102
}
330
1A9
100
AcDbXrecord
280
     1
270
     1
271
     1
  0
XRECORD
  5
1AF
102
{ACAD_REACTORS
330
1A9
102
}
330
1A9
100
AcDbXrecord
280
     1
270
     1
271
     1
  0
XRECORD
  5
1AC
102
{ACAD_REACTORS
330
1A9
102
}
330
1A9
100
AcDbXrecord
280
     1
270
     1
271
     1
  0
CELLSTYLEMAP
  5
275D8
102
{ACAD_REACTORS
330
141C5
102
}
330
141C5
100
AcDbCellStyleMap
 90
        3
300
CELLSTYLE
  1
TABLEFORMAT_BEGIN
 90
        5
170
     1
 91
        0
 92
    32768
 62
   257
 93
        1
300
CONTENTFORMAT
  1
CONTENTFORMAT_BEGIN
 90
        0
 91
        0
 92
      512
 93
        0
300

 40
0.0
140
1.0
 94
        5
 62
     0
340
10
144
6.0
309
CONTENTFORMAT_END
171
     1
301
MARGIN
  1
CELLMARGIN_BEGIN
 40
1.5
 40
1.5
 40
1.5
 40
1.5
 40
0.18
 40
0.18
309
CELLMARGIN_END
 94
        6
 95
        1
302
GRIDFORMAT
  1
GRIDFORMAT_BEGIN
 90
        0
 91
        1
 62
     0
 92
       -2
340
0
 93
        0
 40
1.125
309
GRIDFORMAT_END
 95
        2
302
GRIDFORMAT
  1
GRIDFORMAT_BEGIN
 90
        0
 91
        1
 62
     0
 92
       -2
340
0
 93
        0
 40
1.125
309
GRIDFORMAT_END
 95
        4
302
GRIDFORMAT
  1
GRIDFORMAT_BEGIN
 90
        0
 91
        1
 62
     0
 92
       -2
340
0
 93
        0
 40
1.125
309
GRIDFORMAT_END
 95
        8
302
GRIDFORMAT
  1
GRIDFORMAT_BEGIN
 90
        0
 91
        1
 62
     0
 92
       -2
340
0
 93
        0
 40
1.125
309
GRIDFORMAT_END
 95
       16
302
GRIDFORMAT
  1
GRIDFORMAT_BEGIN
 90
        0
 91
        1
 62
     0
 92
       -2
340
0
 93
        0
 40
1.125
309
GRIDFORMAT_END
 95
       32
302
GRIDFORMAT
  1
GRIDFORMAT_BEGIN
 90
        0
 91
        1
 62
     0
 92
       -2
340
0
 93
        0
 40
1.125
309
GRIDFORMAT_END
309
TABLEFORMAT_END
  1
CELLSTYLE_BEGIN
 90
        1
 91
        1
300
_TITLE
309
CELLSTYLE_END
300
CELLSTYLE
  1
TABLEFORMAT_BEGIN
 90
        5
170
     1
 91
        0
 92
        0
 62
   257
 93
        1
300
CONTENTFORMAT
  1
CONTENTFORMAT_BEGIN
 90
        0
 91
        0
 92
      512
 93
        0
300

 40
0.0
140
1.0
 94
        5
 62
     0
340
10
144
4.5
309
CONTENTFORMAT_END
171
     1
301
MARGIN
  1
CELLMARGIN_BEGIN
 40
1.5
 40
1.5
 40
1.5
 40
1.5
 40
0.18
 40
0.18
309
CELLMARGIN_END
 94
        6
 95
        1
302
GRIDFORMAT
  1
GRIDFORMAT_BEGIN
 90
        0
 91
        1
 62
     0
 92
       -2
340
0
 93
        0
 40
1.125
309
GRIDFORMAT_END
 95
        2
302
GRIDFORMAT
  1
GRIDFORMAT_BEGIN
 90
        0
 91
        1
 62
     0
 92
       -2
340
0
 93
        0
 40
1.125
309
GRIDFORMAT_END
 95
        4
302
GRIDFORMAT
  1
GRIDFORMAT_BEGIN
 90
        0
 91
        1
 62
     0
 92
       -2
340
0
 93
        0
 40
1.125
309
GRIDFORMAT_END
 95
        8
302
GRIDFORMAT
  1
GRIDFORMAT_BEGIN
 90
        0
 91
        1
 62
     0
 92
       -2
340
0
 93
        0
 40
1.125
309
GRIDFORMAT_END
 95
       16
302
GRIDFORMAT
  1
GRIDFORMAT_BEGIN
 90
        0
 91
        1
 62
     0
 92
       -2
340
0
 93
        0
 40
1.125
309
GRIDFORMAT_END
 95
       32
302
GRIDFORMAT
  1
GRIDFORMAT_BEGIN
 90
        0
 91
        1
 62
     0
 92
       -2
340
0
 93
        0
 40
1.125
309
GRIDFORMAT_END
309
TABLEFORMAT_END
  1
CELLSTYLE_BEGIN
 90
        2
 91
        1
300
_HEADER
309
CELLSTYLE_END
300
CELLSTYLE
  1
TABLEFORMAT_BEGIN
 90
        5
170
     1
 91
        0
 92
        0
 62
   257
 93
        1
300
CONTENTFORMAT
  1
CONTENTFORMAT_BEGIN
 90
        0
 91
        0
 92
      512
 93
        0
300

 40
0.0
140
1.0
 94
        2
 62
     0
340
10
144
4.5
309
CONTENTFORMAT_END
171
     1
301
MARGIN
  1
CELLMARGIN_BEGIN
 40
1.5
 40
1.5
 40
1.5
 40
1.5
 40
0.18
 40
0.18
309
CELLMARGIN_END
 94
        6
 95
        1
302
GRIDFORMAT
  1
GRIDFORMAT_BEGIN
 90
        0
 91
        1
 62
     0
 92
       -2
340
0
 93
        0
 40
1.125
309
GRIDFORMAT_END
 95
        2
302
GRIDFORMAT
  1
GRIDFORMAT_BEGIN
 90
        0
 91
        1
 62
     0
 92
       -2
340
0
 93
        0
 40
1.125
309
GRIDFORMAT_END
 95
        4
302
GRIDFORMAT
  1
GRIDFORMAT_BEGIN
 90
        0
 91
        1
 62
     0
 92
       -2
340
0
 93
        0
 40
1.125
309
GRIDFORMAT_END
 95
        8
302
GRIDFORMAT
  1
GRIDFORMAT_BEGIN
 90
        0
 91
        1
 62
     0
 92
       -2
340
0
 93
        0
 40
1.125
309
GRIDFORMAT_END
 95
       16
302
GRIDFORMAT
  1
GRIDFORMAT_BEGIN
 90
        0
 91
        1
 62
     0
 92
       -2
340
0
 93
        0
 40
1.125
309
GRIDFORMAT_END
 95
       32
302
GRIDFORMAT
  1
GRIDFORMAT_BEGIN
 90
        0
 91
        1
 62
     0
 92
       -2
340
0
 93
        0
 40
1.125
309
GRIDFORMAT_END
309
TABLEFORMAT_END
  1
CELLSTYLE_BEGIN
 90
        3
 91
        2
300
_DATA
309
CELLSTYLE_END
  0
XRECORD
  5
27608
102
{ACAD_REACTORS
330
141C5
102
}
330
141C5
100
AcDbXrecord
280
     1
102
ACAD_ROUNDTRIP_PRE2007_TABLESTYLE
 90
      512
 91
        0
  1

 92
      512
 93
        0
  2

 94
      512
 95
        0
  3

  0
XRECORD
  5
275ED
102
{ACAD_REACTORS
330
275EC
102
}
330
275EC
100
AcDbXrecord
280
     1
102
RTVSPropertyOp0
 70
     1
102
RTVSPropertyOp1
 70
     1
102
RTVSPropertyOp2
 70
     1
102
RTVSPropertyOp3
 70
     1
102
RTVSPropertyOp4
 70
     1
102
RTVSPropertyOp5
 70
     1
102
RTVSPropertyOp6
 70
     1
102
RTVSPropertyOp7
 70
     1
102
RTVSPropertyOp8
 70
     1
102
RTVSPropertyOp9
 70
     1
102
RTVSPropertyOp10
 70
     1
102
RTVSPropertyOp11
 70
     1
102
RTVSPropertyOp12
 70
     1
102
RTVSPropertyOp13
 70
     1
102
RTVSPropertyOp14
 70
     1
102
RTVSPropertyOp15
 70
     1
102
RTVSPropertyOp16
 70
     1
102
RTVSPropertyOp17
 70
     1
102
RTVSPropertyOp18
 70
     1
102
RTVSPropertyOp19
 70
     1
102
RTVSPropertyOp20
 70
     1
102
RTVSPropertyOp21
 70
     1
102
RTVSPropertyOp22
 70
     1
102
RTVSPropertyOp23
 70
     1
102
RTVSPropertyOp24
 70
     1
102
RTVSPropertyOp25
 70
     1
102
RTVSPropertyOp26
 70
     1
102
RTVSPropertyOp27
 70
     1
  0
XRECORD
  5
275F1
102
{ACAD_REACTORS
330
275F0
102
}
330
275F0
100
AcDbXrecord
280
     1
102
RTVSPropertyOp0
 70
     1
102
RTVSPropertyOp1
 70
     1
102
RTVSPropertyOp2
 70
     1
102
RTVSPropertyOp3
 70
     1
102
RTVSPropertyOp4
 70
     1
102
RTVSPropertyOp5
 70
     1
102
RTVSPropertyOp6
 70
     1
102
RTVSPropertyOp7
 70
     1
102
RTVSPropertyOp8
 70
     1
102
RTVSPropertyOp9
 70
     1
102
RTVSPropertyOp10
 70
     1
102
RTVSPropertyOp11
 70
     1
102
RTVSPropertyOp12
 70
     1
102
RTVSPropertyOp13
 70
     1
102
RTVSPropertyOp14
 70
     1
102
RTVSPropertyOp15
 70
     1
102
RTVSPropertyOp16
 70
     1
102
RTVSPropertyOp17
 70
     1
102
RTVSPropertyOp18
 70
     1
102
RTVSPropertyOp19
 70
     1
102
RTVSPropertyOp20
 70
     1
102
RTVSPropertyOp21
 70
     1
102
RTVSPropertyOp22
 70
     1
102
RTVSPropertyOp23
 70
     1
102
RTVSPropertyOp24
 70
     1
102
RTVSPropertyOp25
 70
     1
102
RTVSPropertyOp26
 70
     1
102
RTVSPropertyOp27
 70
     1
  0
XRECORD
  5
275EF
102
{ACAD_REACTORS
330
275EE
102
}
330
275EE
100
AcDbXrecord
280
     1
102
RTVSPropertyOp0
 70
     1
102
RTVSPropertyOp1
 70
     1
102
RTVSPropertyOp2
 70
     1
102
RTVSPropertyOp3
 70
     1
102
RTVSPropertyOp4
 70
     1
102
RTVSPropertyOp5
 70
     1
102
RTVSPropertyOp6
 70
     1
102
RTVSPropertyOp7
 70
     1
102
RTVSPropertyOp8
 70
     1
102
RTVSPropertyOp9
 70
     1
102
RTVSPropertyOp10
 70
     1
102
RTVSPropertyOp11
 70
     1
102
RTVSPropertyOp12
 70
     1
102
RTVSPropertyOp13
 70
     1
102
RTVSPropertyOp14
 70
     1
102
RTVSPropertyOp15
 70
     1
102
RTVSPropertyOp16
 70
     1
102
RTVSPropertyOp17
 70
     1
102
RTVSPropertyOp18
 70
     1
102
RTVSPropertyOp19
 70
     1
102
RTVSPropertyOp20
 70
     1
102
RTVSPropertyOp21
 70
     1
102
RTVSPropertyOp22
 70
     1
102
RTVSPropertyOp23
 70
     1
102
RTVSPropertyOp24
 70
     1
102
RTVSPropertyOp25
 70
     1
102
RTVSPropertyOp26
 70
     1
102
RTVSPropertyOp27
 70
     1
  0
XRECORD
  5
275EB
102
{ACAD_REACTORS
330
275EA
102
}
330
275EA
100
AcDbXrecord
280
     1
102
RTVSPropertyOp0
 70
     1
102
RTVSPropertyOp1
 70
     1
102
RTVSPropertyOp2
 70
     1
102
RTVSPropertyOp3
 70
     1
102
RTVSPropertyOp4
 70
     1
102
RTVSPropertyOp5
 70
     1
102
RTVSPropertyOp6
 70
     1
102
RTVSPropertyOp7
 70
     1
102
RTVSPropertyOp8
 70
     1
102
RTVSPropertyOp9
 70
     1
102
RTVSPropertyOp10
 70
     1
102
RTVSPropertyOp11
 70
     1
102
RTVSPropertyOp12
 70
     1
102
RTVSPropertyOp13
 70
     1
102
RTVSPropertyOp14
 70
     1
102
RTVSPropertyOp15
 70
     1
102
RTVSPropertyOp16
 70
     1
102
RTVSPropertyOp17
 70
     1
102
RTVSPropertyOp18
 70
     1
102
RTVSPropertyOp19
 70
     1
102
RTVSPropertyOp20
 70
     1
102
RTVSPropertyOp21
 70
     1
102
RTVSPropertyOp22
 70
     1
102
RTVSPropertyOp23
 70
     1
102
RTVSPropertyOp24
 70
     1
102
RTVSPropertyOp25
 70
     1
102
RTVSPropertyOp26
 70
     1
102
RTVSPropertyOp27
 70
     1
  0
XRECORD
  5
275F9
102
{ACAD_REACTORS
330
275F8
102
}
330
275F8
100
AcDbXrecord
280
     1
102
RTVSPropertyOp0
 70
     1
102
RTVSPropertyOp1
 70
     1
102
RTVSPropertyOp2
 70
     1
102
RTVSPropertyOp3
 70
     1
102
RTVSPropertyOp4
 70
     1
102
RTVSPropertyOp5
 70
     1
102
RTVSPropertyOp6
 70
     1
102
RTVSPropertyOp7
 70
     1
102
RTVSPropertyOp8
 70
     1
102
RTVSPropertyOp9
 70
     1
102
RTVSPropertyOp10
 70
     1
102
RTVSPropertyOp11
 70
     1
102
RTVSPropertyOp12
 70
     1
102
RTVSPropertyOp13
 70
     1
102
RTVSPropertyOp14
 70
     1
102
RTVSPropertyOp15
 70
     1
102
RTVSPropertyOp16
 70
     1
102
RTVSPropertyOp17
 70
     1
102
RTVSPropertyOp18
 70
     1
102
RTVSPropertyOp19
 70
     1
102
RTVSPropertyOp20
 70
     1
102
RTVSPropertyOp21
 70
     1
102
RTVSPropertyOp22
 70
     1
102
RTVSPropertyOp23
 70
     1
102
RTVSPropertyOp24
 70
     1
102
RTVSPropertyOp25
 70
     1
102
RTVSPropertyOp26
 70
     1
102
RTVSPropertyOp27
 70
     1
  0
XRECORD
  5
27601
102
{ACAD_REACTORS
330
27600
102
}
330
27600
100
AcDbXrecord
280
     1
102
RTVSPropertyOp0
 70
     1
102
RTVSPropertyOp1
 70
     1
102
RTVSPropertyOp2
 70
     1
102
RTVSPropertyOp3
 70
     1
102
RTVSPropertyOp4
 70
     1
102
RTVSPropertyOp5
 70
     1
102
RTVSPropertyOp6
 70
     1
102
RTVSPropertyOp7
 70
     1
102
RTVSPropertyOp8
 70
     1
102
RTVSPropertyOp9
 70
     1
102
RTVSPropertyOp10
 70
     1
102
RTVSPropertyOp11
 70
     1
102
RTVSPropertyOp12
 70
     1
102
RTVSPropertyOp13
 70
     1
102
RTVSPropertyOp14
 70
     1
102
RTVSPropertyOp15
 70
     1
102
RTVSPropertyOp16
 70
     1
102
RTVSPropertyOp17
 70
     1
102
RTVSPropertyOp18
 70
     1
102
RTVSPropertyOp19
 70
     1
102
RTVSPropertyOp20
 70
     1
102
RTVSPropertyOp21
 70
     1
102
RTVSPropertyOp22
 70
     1
102
RTVSPropertyOp23
 70
     1
102
RTVSPropertyOp24
 70
     1
102
RTVSPropertyOp25
 70
     1
102
RTVSPropertyOp26
 70
     1
102
RTVSPropertyOp27
 70
     1
  0
XRECORD
  5
275F3
102
{ACAD_REACTORS
330
275F2
102
}
330
275F2
100
AcDbXrecord
280
     1
102
RTVSPropertyOp0
 70
     1
102
RTVSPropertyOp1
 70
     1
102
RTVSPropertyOp2
 70
     1
102
RTVSPropertyOp3
 70
     1
102
RTVSPropertyOp4
 70
     1
102
RTVSPropertyOp5
 70
     1
102
RTVSPropertyOp6
 70
     1
102
RTVSPropertyOp7
 70
     1
102
RTVSPropertyOp8
 70
     1
102
RTVSPropertyOp9
 70
     1
102
RTVSPropertyOp10
 70
     1
102
RTVSPropertyOp11
 70
     1
102
RTVSPropertyOp12
 70
     1
102
RTVSPropertyOp13
 70
     1
102
RTVSPropertyOp14
 70
     1
102
RTVSPropertyOp15
 70
     1
102
RTVSPropertyOp16
 70
     1
102
RTVSPropertyOp17
 70
     1
102
RTVSPropertyOp18
 70
     1
102
RTVSPropertyOp19
 70
     1
102
RTVSPropertyOp20
 70
     1
102
RTVSPropertyOp21
 70
     1
102
RTVSPropertyOp22
 70
     1
102
RTVSPropertyOp23
 70
     1
102
RTVSPropertyOp24
 70
     1
102
RTVSPropertyOp25
 70
     1
102
RTVSPropertyOp26
 70
     1
102
RTVSPropertyOp27
 70
     1
  0
XRECORD
  5
275F7
102
{ACAD_REACTORS
330
275F6
102
}
330
275F6
100
AcDbXrecord
280
     1
102
RTVSPropertyOp0
 70
     1
102
RTVSPropertyOp1
 70
     1
102
RTVSPropertyOp2
 70
     1
102
RTVSPropertyOp3
 70
     1
102
RTVSPropertyOp4
 70
     1
102
RTVSPropertyOp5
 70
     1
102
RTVSPropertyOp6
 70
     1
102
RTVSPropertyOp7
 70
     1
102
RTVSPropertyOp8
 70
     1
102
RTVSPropertyOp9
 70
     1
102
RTVSPropertyOp10
 70
     1
102
RTVSPropertyOp11
 70
     1
102
RTVSPropertyOp12
 70
     1
102
RTVSPropertyOp13
 70
     1
102
RTVSPropertyOp14
 70
     1
102
RTVSPropertyOp15
 70
     1
102
RTVSPropertyOp16
 70
     1
102
RTVSPropertyOp17
 70
     1
102
RTVSPropertyOp18
 70
     1
102
RTVSPropertyOp19
 70
     1
102
RTVSPropertyOp20
 70
     1
102
RTVSPropertyOp21
 70
     1
102
RTVSPropertyOp22
 70
     1
102
RTVSPropertyOp23
 70
     1
102
RTVSPropertyOp24
 70
     1
102
RTVSPropertyOp25
 70
     1
102
RTVSPropertyOp26
 70
     1
102
RTVSPropertyOp27
 70
     1
  0
XRECORD
  5
27607
102
{ACAD_REACTORS
330
27606
102
}
330
27606
100
AcDbXrecord
280
     1
102
RTVSPropertyOp0
 70
     0
102
RTVSPropertyOp1
 70
     0
102
RTVSPropertyOp2
 70
     0
102
RTVSPropertyOp3
 70
     0
102
RTVSPropertyOp4
 70
     0
102
RTVSPropertyOp5
 70
     0
102
RTVSPropertyOp6
 70
     0
102
RTVSPropertyOp7
 70
     0
102
RTVSPropertyOp8
 70
     0
102
RTVSPropertyOp9
 70
     0
102
RTVSPropertyOp10
 70
     0
102
RTVSPropertyOp11
 70
     0
102
RTVSPropertyOp12
 70
     0
102
RTVSPropertyOp13
 70
     0
102
RTVSPropertyOp14
 70
     2
102
RTVSPropertyOp15
 70
     0
102
RTVSPropertyOp16
 70
     0
102
RTVSPropertyOp17
 70
     0
102
RTVSPropertyOp18
 70
     0
102
RTVSPropertyOp19
 70
     0
102
RTVSPropertyOp20
 70
     0
102
RTVSPropertyOp21
 70
     0
102
RTVSPropertyOp22
 70
     0
102
RTVSPropertyOp23
 70
     0
102
RTVSPropertyOp24
 70
     0
102
RTVSPropertyOp25
 70
     0
102
RTVSPropertyOp26
 70
     0
102
RTVSPropertyOp27
 70
     0
  0
XRECORD
  5
275FF
102
{ACAD_REACTORS
330
275FE
102
}
330
275FE
100
AcDbXrecord
280
     1
102
RTVSPropertyOp0
 70
     1
102
RTVSPropertyOp1
 70
     1
102
RTVSPropertyOp2
 70
     1
102
RTVSPropertyOp3
 70
     1
102
RTVSPropertyOp4
 70
     1
102
RTVSPropertyOp5
 70
     1
102
RTVSPropertyOp6
 70
     1
102
RTVSPropertyOp7
 70
     1
102
RTVSPropertyOp8
 70
     1
102
RTVSPropertyOp9
 70
     1
102
RTVSPropertyOp10
 70
     1
102
RTVSPropertyOp11
 70
     1
102
RTVSPropertyOp12
 70
     1
102
RTVSPropertyOp13
 70
     1
102
RTVSPropertyOp14
 70
     1
102
RTVSPropertyOp15
 70
     1
102
RTVSPropertyOp16
 70
     1
102
RTVSPropertyOp17
 70
     1
102
RTVSPropertyOp18
 70
     1
102
RTVSPropertyOp19
 70
     1
102
RTVSPropertyOp20
 70
     1
102
RTVSPropertyOp21
 70
     1
102
RTVSPropertyOp22
 70
     1
102
RTVSPropertyOp23
 70
     1
102
RTVSPropertyOp24
 70
     1
102
RTVSPropertyOp25
 70
     1
102
RTVSPropertyOp26
 70
     1
102
RTVSPropertyOp27
 70
     1
  0
XRECORD
  5
275E3
102
{ACAD_REACTORS
330
275E2
102
}
330
275E2
100
AcDbXrecord
280
     1
102
RTVSPropertyOp0
 70
     1
102
RTVSPropertyOp1
 70
     1
102
RTVSPropertyOp2
 70
     1
102
RTVSPropertyOp3
 70
     1
102
RTVSPropertyOp4
 70
     1
102
RTVSPropertyOp5
 70
     1
102
RTVSPropertyOp6
 70
     1
102
RTVSPropertyOp7
 70
     1
102
RTVSPropertyOp8
 70
     1
102
RTVSPropertyOp9
 70
     1
102
RTVSPropertyOp10
 70
     1
102
RTVSPropertyOp11
 70
     1
102
RTVSPropertyOp12
 70
     1
102
RTVSPropertyOp13
 70
     1
102
RTVSPropertyOp14
 70
     1
102
RTVSPropertyOp15
 70
     1
102
RTVSPropertyOp16
 70
     1
102
RTVSPropertyOp17
 70
     1
102
RTVSPropertyOp18
 70
     1
102
RTVSPropertyOp19
 70
     1
102
RTVSPropertyOp20
 70
     1
102
RTVSPropertyOp21
 70
     1
102
RTVSPropertyOp22
 70
     1
102
RTVSPropertyOp23
 70
     1
102
RTVSPropertyOp24
 70
     1
102
RTVSPropertyOp25
 70
     1
102
RTVSPropertyOp26
 70
     1
102
RTVSPropertyOp27
 70
     1
  0
XRECORD
  5
275E5
102
{ACAD_REACTORS
330
275E4
102
}
330
275E4
100
AcDbXrecord
280
     1
102
RTVSPropertyOp0
 70
     1
102
RTVSPropertyOp1
 70
     1
102
RTVSPropertyOp2
 70
     1
102
RTVSPropertyOp3
 70
     1
102
RTVSPropertyOp4
 70
     1
102
RTVSPropertyOp5
 70
     1
102
RTVSPropertyOp6
 70
     1
102
RTVSPropertyOp7
 70
     1
102
RTVSPropertyOp8
 70
     1
102
RTVSPropertyOp9
 70
     1
102
RTVSPropertyOp10
 70
     1
102
RTVSPropertyOp11
 70
     1
102
RTVSPropertyOp12
 70
     1
102
RTVSPropertyOp13
 70
     1
102
RTVSPropertyOp14
 70
     1
102
RTVSPropertyOp15
 70
     1
102
RTVSPropertyOp16
 70
     1
102
RTVSPropertyOp17
 70
     1
102
RTVSPropertyOp18
 70
     1
102
RTVSPropertyOp19
 70
     1
102
RTVSPropertyOp20
 70
     1
102
RTVSPropertyOp21
 70
     1
102
RTVSPropertyOp22
 70
     1
102
RTVSPropertyOp23
 70
     1
102
RTVSPropertyOp24
 70
     1
102
RTVSPropertyOp25
 70
     1
102
RTVSPropertyOp26
 70
     1
102
RTVSPropertyOp27
 70
     1
  0
XRECORD
  5
275E7
102
{ACAD_REACTORS
330
275E6
102
}
330
275E6
100
AcDbXrecord
280
     1
102
RTVSPropertyOp0
 70
     1
102
RTVSPropertyOp1
 70
     1
102
RTVSPropertyOp2
 70
     1
102
RTVSPropertyOp3
 70
     1
102
RTVSPropertyOp4
 70
     1
102
RTVSPropertyOp5
 70
     1
102
RTVSPropertyOp6
 70
     1
102
RTVSPropertyOp7
 70
     1
102
RTVSPropertyOp8
 70
     1
102
RTVSPropertyOp9
 70
     1
102
RTVSPropertyOp10
 70
     1
102
RTVSPropertyOp11
 70
     1
102
RTVSPropertyOp12
 70
     1
102
RTVSPropertyOp13
 70
     1
102
RTVSPropertyOp14
 70
     1
102
RTVSPropertyOp15
 70
     1
102
RTVSPropertyOp16
 70
     1
102
RTVSPropertyOp17
 70
     1
102
RTVSPropertyOp18
 70
     1
102
RTVSPropertyOp19
 70
     1
102
RTVSPropertyOp20
 70
     1
102
RTVSPropertyOp21
 70
     1
102
RTVSPropertyOp22
 70
     1
102
RTVSPropertyOp23
 70
     1
102
RTVSPropertyOp24
 70
     1
102
RTVSPropertyOp25
 70
     1
102
RTVSPropertyOp26
 70
     1
102
RTVSPropertyOp27
 70
     1
  0
XRECORD
  5
275E9
102
{ACAD_REACTORS
330
275E8
102
}
330
275E8
100
AcDbXrecord
280
     1
102
RTVSPropertyOp0
 70
     1
102
RTVSPropertyOp1
 70
     1
102
RTVSPropertyOp2
 70
     1
102
RTVSPropertyOp3
 70
     1
102
RTVSPropertyOp4
 70
     1
102
RTVSPropertyOp5
 70
     1
102
RTVSPropertyOp6
 70
     1
102
RTVSPropertyOp7
 70
     1
102
RTVSPropertyOp8
 70
     1
102
RTVSPropertyOp9
 70
     1
102
RTVSPropertyOp10
 70
     1
102
RTVSPropertyOp11
 70
     1
102
RTVSPropertyOp12
 70
     1
102
RTVSPropertyOp13
 70
     1
102
RTVSPropertyOp14
 70
     1
102
RTVSPropertyOp15
 70
     1
102
RTVSPropertyOp16
 70
     1
102
RTVSPropertyOp17
 70
     1
102
RTVSPropertyOp18
 70
     1
102
RTVSPropertyOp19
 70
     1
102
RTVSPropertyOp20
 70
     1
102
RTVSPropertyOp21
 70
     1
102
RTVSPropertyOp22
 70
     1
102
RTVSPropertyOp23
 70
     1
102
RTVSPropertyOp24
 70
     1
102
RTVSPropertyOp25
 70
     1
102
RTVSPropertyOp26
 70
     1
102
RTVSPropertyOp27
 70
     1
  0
XRECORD
  5
27603
102
{ACAD_REACTORS
330
27602
102
}
330
27602
100
AcDbXrecord
280
     1
102
RTVSPropertyOp0
 70
     0
102
RTVSPropertyOp1
 70
     0
102
RTVSPropertyOp2
 70
     0
102
RTVSPropertyOp3
 70
     0
102
RTVSPropertyOp4
 70
     0
102
RTVSPropertyOp5
 70
     0
102
RTVSPropertyOp6
 70
     0
102
RTVSPropertyOp7
 70
     0
102
RTVSPropertyOp8
 70
     0
102
RTVSPropertyOp9
 70
     0
102
RTVSPropertyOp10
 70
     0
102
RTVSPropertyOp11
 70
     0
102
RTVSPropertyOp12
 70
     0
102
RTVSPropertyOp13
 70
     0
102
RTVSPropertyOp14
 70
     2
102
RTVSPropertyOp15
 70
     0
102
RTVSPropertyOp16
 70
     0
102
RTVSPropertyOp17
 70
     0
102
RTVSPropertyOp18
 70
     0
102
RTVSPropertyOp19
 70
     0
102
RTVSPropertyOp20
 70
     0
102
RTVSPropertyOp21
 70
     0
102
RTVSPropertyOp22
 70
     0
102
RTVSPropertyOp23
 70
     0
102
RTVSPropertyOp24
 70
     0
102
RTVSPropertyOp25
 70
     0
102
RTVSPropertyOp26
 70
     0
102
RTVSPropertyOp27
 70
     0
  0
XRECORD
  5
275FD
102
{ACAD_REACTORS
330
275FC
102
}
330
275FC
100
AcDbXrecord
280
     1
102
RTVSPropertyOp0
 70
     1
102
RTVSPropertyOp1
 70
     1
102
RTVSPropertyOp2
 70
     1
102
RTVSPropertyOp3
 70
     1
102
RTVSPropertyOp4
 70
     1
102
RTVSPropertyOp5
 70
     1
102
RTVSPropertyOp6
 70
     1
102
RTVSPropertyOp7
 70
     1
102
RTVSPropertyOp8
 70
     1
102
RTVSPropertyOp9
 70
     1
102
RTVSPropertyOp10
 70
     1
102
RTVSPropertyOp11
 70
     1
102
RTVSPropertyOp12
 70
     1
102
RTVSPropertyOp13
 70
     1
102
RTVSPropertyOp14
 70
     1
102
RTVSPropertyOp15
 70
     1
102
RTVSPropertyOp16
 70
     1
102
RTVSPropertyOp17
 70
     1
102
RTVSPropertyOp18
 70
     1
102
RTVSPropertyOp19
 70
     1
102
RTVSPropertyOp20
 70
     1
102
RTVSPropertyOp21
 70
     1
102
RTVSPropertyOp22
 70
     1
102
RTVSPropertyOp23
 70
     1
102
RTVSPropertyOp24
 70
     1
102
RTVSPropertyOp25
 70
     1
102
RTVSPropertyOp26
 70
     1
102
RTVSPropertyOp27
 70
     1
  0
XRECORD
  5
27605
102
{ACAD_REACTORS
330
27604
102
}
330
27604
100
AcDbXrecord
280
     1
102
RTVSPropertyOp0
 70
     0
102
RTVSPropertyOp1
 70
     0
102
RTVSPropertyOp2
 70
     0
102
RTVSPropertyOp3
 70
     0
102
RTVSPropertyOp4
 70
     0
102
RTVSPropertyOp5
 70
     0
102
RTVSPropertyOp6
 70
     0
102
RTVSPropertyOp7
 70
     0
102
RTVSPropertyOp8
 70
     0
102
RTVSPropertyOp9
 70
     0
102
RTVSPropertyOp10
 70
     0
102
RTVSPropertyOp11
 70
     0
102
RTVSPropertyOp12
 70
     0
102
RTVSPropertyOp13
 70
     0
102
RTVSPropertyOp14
 70
     2
102
RTVSPropertyOp15
 70
     0
102
RTVSPropertyOp16
 70
     0
102
RTVSPropertyOp17
 70
     0
102
RTVSPropertyOp18
 70
     0
102
RTVSPropertyOp19
 70
     0
102
RTVSPropertyOp20
 70
     0
102
RTVSPropertyOp21
 70
     0
102
RTVSPropertyOp22
 70
     0
102
RTVSPropertyOp23
 70
     0
102
RTVSPropertyOp24
 70
     0
102
RTVSPropertyOp25
 70
     0
102
RTVSPropertyOp26
 70
     0
102
RTVSPropertyOp27
 70
     0
  0
XRECORD
  5
275F5
102
{ACAD_REACTORS
330
275F4
102
}
330
275F4
100
AcDbXrecord
280
     1
102
RTVSPropertyOp0
 70
     1
102
RTVSPropertyOp1
 70
     1
102
RTVSPropertyOp2
 70
     1
102
RTVSPropertyOp3
 70
     1
102
RTVSPropertyOp4
 70
     1
102
RTVSPropertyOp5
 70
     1
102
RTVSPropertyOp6
 70
     1
102
RTVSPropertyOp7
 70
     1
102
RTVSPropertyOp8
 70
     1
102
RTVSPropertyOp9
 70
     1
102
RTVSPropertyOp10
 70
     1
102
RTVSPropertyOp11
 70
     1
102
RTVSPropertyOp12
 70
     1
102
RTVSPropertyOp13
 70
     1
102
RTVSPropertyOp14
 70
     1
102
RTVSPropertyOp15
 70
     1
102
RTVSPropertyOp16
 70
     1
102
RTVSPropertyOp17
 70
     1
102
RTVSPropertyOp18
 70
     1
102
RTVSPropertyOp19
 70
     1
102
RTVSPropertyOp20
 70
     1
102
RTVSPropertyOp21
 70
     1
102
RTVSPropertyOp22
 70
     1
102
RTVSPropertyOp23
 70
     1
102
RTVSPropertyOp24
 70
     1
102
RTVSPropertyOp25
 70
     1
102
RTVSPropertyOp26
 70
     1
102
RTVSPropertyOp27
 70
     1
  0
XRECORD
  5
275FB
102
{ACAD_REACTORS
330
275FA
102
}
330
275FA
100
AcDbXrecord
280
     1
102
RTVSPropertyOp0
 70
     1
102
RTVSPropertyOp1
 70
     1
102
RTVSPropertyOp2
 70
     1
102
RTVSPropertyOp3
 70
     1
102
RTVSPropertyOp4
 70
     1
102
RTVSPropertyOp5
 70
     1
102
RTVSPropertyOp6
 70
     1
102
RTVSPropertyOp7
 70
     1
102
RTVSPropertyOp8
 70
     1
102
RTVSPropertyOp9
 70
     1
102
RTVSPropertyOp10
 70
     1
102
RTVSPropertyOp11
 70
     1
102
RTVSPropertyOp12
 70
     1
102
RTVSPropertyOp13
 70
     1
102
RTVSPropertyOp14
 70
     1
102
RTVSPropertyOp15
 70
     1
102
RTVSPropertyOp16
 70
     1
102
RTVSPropertyOp17
 70
     1
102
RTVSPropertyOp18
 70
     1
102
RTVSPropertyOp19
 70
     1
102
RTVSPropertyOp20
 70
     1
102
RTVSPropertyOp21
 70
     1
102
RTVSPropertyOp22
 70
     1
102
RTVSPropertyOp23
 70
     1
102
RTVSPropertyOp24
 70
     1
102
RTVSPropertyOp25
 70
     1
102
RTVSPropertyOp26
 70
     1
102
RTVSPropertyOp27
 70
     1
  0
ENDSEC
  0
EOF
