  0
SECTION
  2
HEADER
  9
$ACADVER
  1
AC1015
  9
$ACADMAINTVER
 70
    20
  9
$DWGCODEPAGE
  3
ANSI_1252
  9
$INSBASE
 10
0.0
 20
0.0
 30
0.0
  9
$EXTMIN
 10
805.2743274870953
 20
1320.860152160999
 30
0.0
  9
$EXTMAX
 10
2367.369263071433
 20
2556.217726853942
 30
0.0
  9
$LIMMIN
 10
0.0
 20
0.0
  9
$LIMMAX
 10
2000.0
 20
2000.0
  9
$ORTHOMODE
 70
     1
  9
$REGENMODE
 70
     1
  9
$FILLMODE
 70
     1
  9
$QTEXTMODE
 70
     0
  9
$MIRRTEXT
 70
     1
  9
$LTSCALE
 40
1.0
  9
$ATTMODE
 70
     1
  9
$TEXTSIZE
 40
16.83501683501684
  9
$TRACEWID
 40
1.0
  9
$TEXTSTYLE
  7
STANDARD
  9
$CLAYER
  8
0
  9
$CELTYPE
  6
BYLAYER
  9
$CECOLOR
 62
   256
  9
$CELTSCALE
 40
1.0
  9
$DISPSILH
 70
     0
  9
$DIMSCALE
 40
0.0
  9
$DIMASZ
 40
2.5
  9
$DIMEXO
 40
5.0
  9
$DIMDLI
 40
3.75
  9
$DIMRND
 40
0.0
  9
$DIMDLE
 40
0.0
  9
$DIMEXE
 40
1.25
  9
$DIMTP
 40
0.0
  9
$DIMTM
 40
0.0
  9
$DIMTXT
 40
2.5
  9
$DIMCEN
 40
2.5
  9
$DIMTSZ
 40
0.0
  9
$DIMTOL
 70
     0
  9
$DIMLIM
 70
     0
  9
$DIMTIH
 70
     0
  9
$DIMTOH
 70
     0
  9
$DIMSE1
 70
     0
  9
$DIMSE2
 70
     0
  9
$DIMTAD
 70
     1
  9
$DIMZIN
 70
     8
  9
$DIMBLK
  1

  9
$DIMASO
 70
     1
  9
$DIMSHO
 70
     1
  9
$DIMPOST
  1

  9
$DIMAPOST
  1

  9
$DIMALT
 70
     0
  9
$DIMALTD
 70
     1
  9
$DIMALTF
 40
1.0
  9
$DIMLFAC
 40
-1.0
  9
$DIMTOFL
 70
     1
  9
$DIMTVP
 40
0.0
  9
$DIMTIX
 70
     0
  9
$DIMSOXD
 70
     0
  9
$DIMSAH
 70
     0
  9
$DIMBLK1
  1

  9
$DIMBLK2
  1

  9
$DIMSTYLE
  2
ISO-25_WS
  9
$DIMCLRD
 70
     0
  9
$DIMCLRE
 70
     0
  9
$DIMCLRT
 70
     0
  9
$DIMTFAC
 40
1.0
  9
$DIMGAP
 40
0.625
  9
$DIMJUST
 70
     0
  9
$DIMSD1
 70
     0
  9
$DIMSD2
 70
     0
  9
$DIMTOLJ
 70
     1
  9
$DIMTZIN
 70
     0
  9
$DIMALTZ
 70
     0
  9
$DIMALTTZ
 70
     0
  9
$DIMUPT
 70
     0
  9
$DIMDEC
 70
     1
  9
$DIMTDEC
 70
     1
  9
$DIMALTU
 70
     8
  9
$DIMALTTD
 70
     1
  9
$DIMTXSTY
  7
STANDARD
  9
$DIMAUNIT
 70
     0
  9
$DIMADEC
 70
     0
  9
$DIMALTRND
 40
0.0
  9
$DIMAZIN
 70
     0
  9
$DIMDSEP
 70
    46
  9
$DIMATFIT
 70
     3
  9
$DIMFRAC
 70
     0
  9
$DIMLDRBLK
  1

  9
$DIMLUNIT
 70
     2
  9
$DIMLWD
 70
    13
  9
$DIMLWE
 70
    13
  9
$DIMTMOVE
 70
     0
  9
$LUNITS
 70
     2
  9
$LUPREC
 70
     4
  9
$SKETCHINC
 40
1.0
  9
$FILLETRAD
 40
67.34006734006735
  9
$AUNITS
 70
     0
  9
$AUPREC
 70
     0
  9
$MENU
  1
.
  9
$ELEVATION
 40
0.0
  9
$PELEVATION
 40
0.0
  9
$THICKNESS
 40
0.0
  9
$LIMCHECK
 70
     0
  9
$CHAMFERA
 40
1.5
  9
$CHAMFERB
 40
1.5
  9
$CHAMFERC
 40
134.6801346801347
  9
$CHAMFERD
 40
0.0
  9
$SKPOLY
 70
     1
  9
$TDCREATE
 40
2459411.713561609
  9
$TDUCREATE
 40
2459411.630228276
  9
$TDUPDATE
 40
2459411.713799792
  9
$TDUUPDATE
 40
2459411.630466458
  9
$TDINDWG
 40
0.0002383565
  9
$TDUSRTIMER
 40
0.0002383565
  9
$USRTIMER
 70
     1
  9
$ANGBASE
 50
0.0
  9
$ANGDIR
 70
     0
  9
$PDMODE
 70
     0
  9
$PDSIZE
 40
0.0
  9
$PLINEWID
 40
0.0
  9
$SPLFRAME
 70
     0
  9
$SPLINETYPE
 70
     6
  9
$SPLINESEGS
 70
     8
  9
$HANDSEED
  5
4E2
  9
$SURFTAB1
 70
     6
  9
$SURFTAB2
 70
     6
  9
$SURFTYPE
 70
     6
  9
$SURFU
 70
     6
  9
$SURFV
 70
     6
  9
$UCSBASE
  2

  9
$UCSNAME
  2

  9
$UCSORG
 10
0.0
 20
0.0
 30
0.0
  9
$UCSXDIR
 10
1.0
 20
0.0
 30
0.0
  9
$UCSYDIR
 10
0.0
 20
1.0
 30
0.0
  9
$UCSORTHOREF
  2

  9
$UCSORTHOVIEW
 70
     0
  9
$UCSORGTOP
 10
0.0
 20
0.0
 30
0.0
  9
$UCSORGBOTTOM
 10
0.0
 20
0.0
 30
0.0
  9
$UCSORGLEFT
 10
0.0
 20
0.0
 30
0.0
  9
$UCSORGRIGHT
 10
0.0
 20
0.0
 30
0.0
  9
$UCSORGFRONT
 10
0.0
 20
0.0
 30
0.0
  9
$UCSORGBACK
 10
0.0
 20
0.0
 30
0.0
  9
$PUCSBASE
  2

  9
$PUCSNAME
  2

  9
$PUCSORG
 10
0.0
 20
0.0
 30
0.0
  9
$PUCSXDIR
 10
1.0
 20
0.0
 30
0.0
  9
$PUCSYDIR
 10
0.0
 20
1.0
 30
0.0
  9
$PUCSORTHOREF
  2

  9
$PUCSORTHOVIEW
 70
     0
  9
$PUCSORGTOP
 10
0.0
 20
0.0
 30
0.0
  9
$PUCSORGBOTTOM
 10
0.0
 20
0.0
 30
0.0
  9
$PUCSORGLEFT
 10
0.0
 20
0.0
 30
0.0
  9
$PUCSORGRIGHT
 10
0.0
 20
0.0
 30
0.0
  9
$PUCSORGFRONT
 10
0.0
 20
0.0
 30
0.0
  9
$PUCSORGBACK
 10
0.0
 20
0.0
 30
0.0
  9
$USERI1
 70
     0
  9
$USERI2
 70
     0
  9
$USERI3
 70
     0
  9
$USERI4
 70
     0
  9
$USERI5
 70
     0
  9
$USERR1
 40
0.0
  9
$USERR2
 40
0.0
  9
$USERR3
 40
0.0
  9
$USERR4
 40
0.0
  9
$USERR5
 40
0.0
  9
$WORLDVIEW
 70
     1
  9
$SHADEDGE
 70
     3
  9
$SHADEDIF
 70
    70
  9
$TILEMODE
 70
     1
  9
$MAXACTVP
 70
    48
  9
$PINSBASE
 10
0.0
 20
0.0
 30
0.0
  9
$PLIMCHECK
 70
     0
  9
$PEXTMIN
 10
27.9632857322693
 20
20.15701580047608
 30
0.0
  9
$PEXTMAX
 10
251.6695715904236
 20
181.4131422042846
 30
0.0
  9
$PLIMMIN
 10
-3.84173583984375
 20
-4.222749710083007
  9
$PLIMMAX
 10
293.1265869140625
 20
205.7505779266358
  9
$UNITMODE
 70
     0
  9
$VISRETAIN
 70
     1
  9
$PLINEGEN
 70
     0
  9
$PSLTSCALE
 70
     1
  9
$TREEDEPTH
 70
  3020
  9
$CMLSTYLE
  2
STANDARD
  9
$CMLJUST
 70
     0
  9
$CMLSCALE
 40
1.0
  9
$PROXYGRAPHICS
 70
     1
  9
$MEASUREMENT
 70
     1
  9
$CELWEIGHT
370
    -1
  9
$ENDCAPS
280
     0
  9
$JOINSTYLE
280
     0
  9
$LWDISPLAY
290
     0
  9
$INSUNITS
 70
     0
  9
$HYPERLINKBASE
  1

  9
$STYLESHEET
  1

  9
$XEDIT
290
     1
  9
$CEPSNTYPE
380
     0
  9
$PSTYLEMODE
290
     1
  9
$FINGERPRINTGUID
  2
{93324866-3A9F-4468-984E-C87B70540588}
  9
$VERSIONGUID
  2
{225B47A4-C684-476A-9E62-75EC925A9F55}
  9
$EXTNAMES
290
     1
  9
$PSVPSCALE
 40
0.0
  9
$OLESTARTUP
290
     0
  0
ENDSEC
  0
SECTION
  2
CLASSES
  0
CLASS
  1
DICTIONARYVAR
  2
AcDbDictionaryVar
  3
ObjectDBX Classes
 90
        0
280
     0
281
     0
  0
CLASS
  1
ACDBDICTIONARYWDFLT
  2
AcDbDictionaryWithDefault
  3
ObjectDBX Classes
 90
        0
280
     0
281
     0
  0
CLASS
  1
ACDBPLACEHOLDER
  2
AcDbPlaceHolder
  3
ObjectDBX Classes
 90
        0
280
     0
281
     0
  0
CLASS
  1
LAYOUT
  2
AcDbLayout
  3
ObjectDBX Classes
 90
        0
280
     0
281
     0
  0
CLASS
  1
MATERIAL
  2
AcDbMaterial
  3
ObjectDBX Classes
 90
     1153
280
     0
281
     0
  0
CLASS
  1
VISUALSTYLE
  2
AcDbVisualStyle
  3
ObjectDBX Classes
 90
     4095
280
     0
281
     0
  0
CLASS
  1
TABLESTYLE
  2
AcDbTableStyle
  3
ObjectDBX Classes
 90
     4095
280
     0
281
     0
  0
CLASS
  1
SCALE
  2
AcDbScale
  3
ObjectDBX Classes
 90
     1153
280
     0
281
     0
  0
CLASS
  1
MLEADERSTYLE
  2
AcDbMLeaderStyle
  3
ACDB_MLEADERSTYLE_CLASS
 90
     4095
280
     0
281
     0
  0
CLASS
  1
CELLSTYLEMAP
  2
AcDbCellStyleMap
  3
ObjectDBX Classes
 90
     1152
280
     0
281
     0
  0
ENDSEC
  0
SECTION
  2
TABLES
  0
TABLE
  2
VPORT
  5
8
330
0
100
AcDbSymbolTable
 70
     1
  0
VPORT
  5
195
330
8
100
AcDbSymbolTableRecord
100
AcDbViewportTableRecord
  2
*Active
 70
     0
 10
0.0
 20
0.0
 11
1.0
 21
1.0
 12
1355.382065350189
 22
1466.154477186148
 13
0.0
 23
0.0
 14
67.0
 24
67.0
 15
67.0
 25
67.0
 16
0.0
 26
0.0
 36
1.0
 17
0.0
 27
0.0
 37
0.0
 40
2282.768631046568
 41
2.148488830486202
 42
50.0
 43
0.0
 44
0.0
 50
0.0
 51
0.0
 71
     0
 72
   100
 73
     1
 74
     1
 75
     0
 76
     0
 77
     0
 78
     0
281
     0
 65
     1
110
0.0
120
0.0
130
0.0
111
1.0
121
0.0
131
0.0
112
0.0
122
1.0
132
0.0
 79
     0
146
0.0
  0
ENDTAB
  0
TABLE
  2
LTYPE
  5
5
330
0
100
AcDbSymbolTable
 70
    46
  0
LTYPE
  5
14
330
5
100
AcDbSymbolTableRecord
100
AcDbLinetypeTableRecord
  2
BYBLOCK
 70
     0
  3

 72
    65
 73
     0
 40
0.0
  0
LTYPE
  5
15
330
5
100
AcDbSymbolTableRecord
100
AcDbLinetypeTableRecord
  2
BYLAYER
 70
     0
  3

 72
    65
 73
     0
 40
0.0
  0
LTYPE
  5
16
330
5
100
AcDbSymbolTableRecord
100
AcDbLinetypeTableRecord
  2
CONTINUOUS
 70
     0
  3
Solid line
 72
    65
 73
     0
 40
0.0
  0
LTYPE
  5
80
330
5
100
AcDbSymbolTableRecord
100
AcDbLinetypeTableRecord
  2
ACAD_ISO02W100
 70
     0
  3
 ISO trazo __ __ __ __ __ __ __ __ __ __ __ __ 
 72
    65
 73
     2
 40
15.0
 49
12.0
 74
     0
 49
-3.0
 74
     0
  0
LTYPE
  5
81
330
5
100
AcDbSymbolTableRecord
100
AcDbLinetypeTableRecord
  2
ACAD_ISO10W100
 70
     0
  3
 ISO trazo, punto __ . __ . __ . __ . __ . __ .
 72
    65
 73
     4
 40
18.5
 49
12.0
 74
     0
 49
-3.0
 74
     0
 49
0.5
 74
     0
 49
-3.0
 74
     0
  0
LTYPE
  5
1DD
330
5
100
AcDbSymbolTableRecord
100
AcDbLinetypeTableRecord
  2
BORDER
 70
     0
  3
Border __ __ . __ __ . __ __ . __ __ . __ __ .
 72
    65
 73
     6
 40
1.75
 49
0.5
 74
     0
 49
-0.25
 74
     0
 49
0.5
 74
     0
 49
-0.25
 74
     0
 49
0.0
 74
     0
 49
-0.25
 74
     0
  0
LTYPE
  5
1DE
330
5
100
AcDbSymbolTableRecord
100
AcDbLinetypeTableRecord
  2
BORDER2
 70
     0
  3
Border (.5x) __.__.__.__.__.__.__.__.__.__.__.
 72
    65
 73
     6
 40
0.875
 49
0.25
 74
     0
 49
-0.125
 74
     0
 49
0.25
 74
     0
 49
-0.125
 74
     0
 49
0.0
 74
     0
 49
-0.125
 74
     0
  0
LTYPE
  5
1DF
330
5
100
AcDbSymbolTableRecord
100
AcDbLinetypeTableRecord
  2
BORDERX2
 70
     0
  3
Border (2x) ____  ____  .  ____  ____  .  ___
 72
    65
 73
     6
 40
3.5
 49
1.0
 74
     0
 49
-0.5
 74
     0
 49
1.0
 74
     0
 49
-0.5
 74
     0
 49
0.0
 74
     0
 49
-0.5
 74
     0
  0
LTYPE
  5
1E0
330
5
100
AcDbSymbolTableRecord
100
AcDbLinetypeTableRecord
  2
CENTER
 70
     0
  3
Center ____ _ ____ _ ____ _ ____ _ ____ _ ____
 72
    65
 73
     4
 40
2.0
 49
1.25
 74
     0
 49
-0.25
 74
     0
 49
0.25
 74
     0
 49
-0.25
 74
     0
  0
LTYPE
  5
1E1
330
5
100
AcDbSymbolTableRecord
100
AcDbLinetypeTableRecord
  2
CENTER2
 70
     0
  3
Center (.5x) ___ _ ___ _ ___ _ ___ _ ___ _ ___
 72
    65
 73
     4
 40
1.125
 49
0.75
 74
     0
 49
-0.125
 74
     0
 49
0.125
 74
     0
 49
-0.125
 74
     0
  0
LTYPE
  5
1E2
330
5
100
AcDbSymbolTableRecord
100
AcDbLinetypeTableRecord
  2
CENTERX2
 70
     0
  3
Center (2x) ________  __  ________  __  _____
 72
    65
 73
     4
 40
4.0
 49
2.5
 74
     0
 49
-0.5
 74
     0
 49
0.5
 74
     0
 49
-0.5
 74
     0
  0
LTYPE
  5
1E3
330
5
100
AcDbSymbolTableRecord
100
AcDbLinetypeTableRecord
  2
DASHDOT
 70
     0
  3
Dash dot __ . __ . __ . __ . __ . __ . __ . __
 72
    65
 73
     4
 40
1.0
 49
0.5
 74
     0
 49
-0.25
 74
     0
 49
0.0
 74
     0
 49
-0.25
 74
     0
  0
LTYPE
  5
1E4
330
5
100
AcDbSymbolTableRecord
100
AcDbLinetypeTableRecord
  2
DASHDOT2
 70
     0
  3
Dash dot (.5x) _._._._._._._._._._._._._._._.
 72
    65
 73
     4
 40
0.5
 49
0.25
 74
     0
 49
-0.125
 74
     0
 49
0.0
 74
     0
 49
-0.125
 74
     0
  0
LTYPE
  5
1E5
330
5
100
AcDbSymbolTableRecord
100
AcDbLinetypeTableRecord
  2
DASHDOTX2
 70
     0
  3
Dash dot (2x) ____  .  ____  .  ____  .  ___
 72
    65
 73
     4
 40
2.0
 49
1.0
 74
     0
 49
-0.5
 74
     0
 49
0.0
 74
     0
 49
-0.5
 74
     0
  0
LTYPE
  5
1E6
330
5
100
AcDbSymbolTableRecord
100
AcDbLinetypeTableRecord
  2
DASHED
 70
     0
  3
Dashed __ __ __ __ __ __ __ __ __ __ __ __ __ _
 72
    65
 73
     2
 40
0.75
 49
0.5
 74
     0
 49
-0.25
 74
     0
  0
LTYPE
  5
1E7
330
5
100
AcDbSymbolTableRecord
100
AcDbLinetypeTableRecord
  2
DASHED2
 70
     0
  3
Dashed (.5x) _ _ _ _ _ _ _ _ _ _ _ _ _ _ _ _ _
 72
    65
 73
     2
 40
0.375
 49
0.25
 74
     0
 49
-0.125
 74
     0
  0
LTYPE
  5
1E8
330
5
100
AcDbSymbolTableRecord
100
AcDbLinetypeTableRecord
  2
DASHEDX2
 70
     0
  3
Dashed (2x) ____  ____  ____  ____  ____  ___
 72
    65
 73
     2
 40
1.5
 49
1.0
 74
     0
 49
-0.5
 74
     0
  0
LTYPE
  5
1E9
330
5
100
AcDbSymbolTableRecord
100
AcDbLinetypeTableRecord
  2
DIVIDE
 70
     0
  3
Divide ____ . . ____ . . ____ . . ____ . . ____
 72
    65
 73
     6
 40
1.25
 49
0.5
 74
     0
 49
-0.25
 74
     0
 49
0.0
 74
     0
 49
-0.25
 74
     0
 49
0.0
 74
     0
 49
-0.25
 74
     0
  0
LTYPE
  5
1EA
330
5
100
AcDbSymbolTableRecord
100
AcDbLinetypeTableRecord
  2
DIVIDE2
 70
     0
  3
Divide (.5x) __..__..__..__..__..__..__..__.._
 72
    65
 73
     6
 40
0.625
 49
0.25
 74
     0
 49
-0.125
 74
     0
 49
0.0
 74
     0
 49
-0.125
 74
     0
 49
0.0
 74
     0
 49
-0.125
 74
     0
  0
LTYPE
  5
1EB
330
5
100
AcDbSymbolTableRecord
100
AcDbLinetypeTableRecord
  2
DIVIDEX2
 70
     0
  3
Divide (2x) ________  .  .  ________  .  .  _
 72
    65
 73
     6
 40
2.5
 49
1.0
 74
     0
 49
-0.5
 74
     0
 49
0.0
 74
     0
 49
-0.5
 74
     0
 49
0.0
 74
     0
 49
-0.5
 74
     0
  0
LTYPE
  5
1EC
330
5
100
AcDbSymbolTableRecord
100
AcDbLinetypeTableRecord
  2
DOT
 70
     0
  3
Dot . . . . . . . . . . . . . . . . . . . . . .
 72
    65
 73
     2
 40
0.25
 49
0.0
 74
     0
 49
-0.25
 74
     0
  0
LTYPE
  5
1ED
330
5
100
AcDbSymbolTableRecord
100
AcDbLinetypeTableRecord
  2
DOT2
 70
     0
  3
Dot (.5x) .....................................
 72
    65
 73
     2
 40
0.125
 49
0.0
 74
     0
 49
-0.125
 74
     0
  0
LTYPE
  5
1EE
330
5
100
AcDbSymbolTableRecord
100
AcDbLinetypeTableRecord
  2
DOTX2
 70
     0
  3
Dot (2x) .  .  .  .  .  .  .  .  .  .  .  .  . 
 72
    65
 73
     2
 40
0.5
 49
0.0
 74
     0
 49
-0.5
 74
     0
  0
LTYPE
  5
1EF
330
5
100
AcDbSymbolTableRecord
100
AcDbLinetypeTableRecord
  2
GAS_LINE
 70
     0
  3
Gas line ----GAS----GAS----GAS----GAS----GAS---
 72
    65
 73
     3
 40
0.95
 49
0.5
 74
     0
 49
-0.2
 74
     2
 75
     0
340
10
 46
0.1
 50
0.0
 44
-0.1
 45
-0.05
  9
GAS
 49
-0.25
 74
     0
  0
LTYPE
  5
1F0
330
5
100
AcDbSymbolTableRecord
100
AcDbLinetypeTableRecord
  2
HIDDEN
 70
     0
  3
Hidden __ __ __ __ __ __ __ __ __ __ __ __ __ _
 72
    65
 73
     2
 40
0.375
 49
0.25
 74
     0
 49
-0.125
 74
     0
  0
LTYPE
  5
1F1
330
5
100
AcDbSymbolTableRecord
100
AcDbLinetypeTableRecord
  2
HIDDEN2
 70
     0
  3
Hidden (.5x) _ _ _ _ _ _ _ _ _ _ _ _ _ _ _ _ _
 72
    65
 73
     2
 40
0.1875
 49
0.125
 74
     0
 49
-0.0625
 74
     0
  0
LTYPE
  5
1F2
330
5
100
AcDbSymbolTableRecord
100
AcDbLinetypeTableRecord
  2
HIDDENX2
 70
     0
  3
Hidden (2x) ____ ____ ____ ____ ____ ____ ____
 72
    65
 73
     2
 40
0.75
 49
0.5
 74
     0
 49
-0.25
 74
     0
  0
LTYPE
  5
1F3
330
5
100
AcDbSymbolTableRecord
100
AcDbLinetypeTableRecord
  2
PHANTOM
 70
     0
  3
Phantom ______  __  __  ______  __  __  ______
 72
    65
 73
     6
 40
2.5
 49
1.25
 74
     0
 49
-0.25
 74
     0
 49
0.25
 74
     0
 49
-0.25
 74
     0
 49
0.25
 74
     0
 49
-0.25
 74
     0
  0
LTYPE
  5
1F4
330
5
100
AcDbSymbolTableRecord
100
AcDbLinetypeTableRecord
  2
PHANTOM2
 70
     0
  3
Phantom (.5x) ___ _ _ ___ _ _ ___ _ _ ___ _ _
 72
    65
 73
     6
 40
1.25
 49
0.625
 74
     0
 49
-0.125
 74
     0
 49
0.125
 74
     0
 49
-0.125
 74
     0
 49
0.125
 74
     0
 49
-0.125
 74
     0
  0
LTYPE
  5
1F5
330
5
100
AcDbSymbolTableRecord
100
AcDbLinetypeTableRecord
  2
PHANTOMX2
 70
     0
  3
Phantom (2x) ____________    ____    ____   _
 72
    65
 73
     6
 40
5.0
 49
2.5
 74
     0
 49
-0.5
 74
     0
 49
0.5
 74
     0
 49
-0.5
 74
     0
 49
0.5
 74
     0
 49
-0.5
 74
     0
  0
LTYPE
  5
1F6
330
5
100
AcDbSymbolTableRecord
100
AcDbLinetypeTableRecord
  2
ZIGZAG
 70
     0
  3
Zig zag /\/\/\/\/\/\/\/\/\/\/\/\/\/\/\/\/\/\/\/
 72
    65
 73
     4
 40
0.8001000000000001
 49
0.0001
 74
     0
 49
-0.2
 74
     4
 75
   131
340
20A
 46
0.2
 50
0.0
 44
-0.2
 45
0.0
 49
-0.4
 74
     4
 75
   131
340
20A
 46
0.2
 50
180.0
 44
0.2
 45
0.0
 49
-0.2
 74
     0
  0
LTYPE
  5
1F7
330
5
100
AcDbSymbolTableRecord
100
AcDbLinetypeTableRecord
  2
CPFLEX
 70
     0
  3
CP flex /\/\/\/\/\/\/\/\/\/\/\/\/\/\/\/\/\/\/\/
 72
    65
 73
     4
 40
0.8001000000000001
 49
0.0001
 74
     0
 49
-0.2
 74
     4
 75
   131
340
20A
 46
0.2
 50
0.0
 44
-0.2
 45
0.0
 49
-0.4
 74
     4
 75
   131
340
20A
 46
0.2
 50
180.0
 44
0.2
 45
0.0
 49
-0.2
 74
     0
  0
LTYPE
  5
1F8
330
5
100
AcDbSymbolTableRecord
100
AcDbLinetypeTableRecord
  2
CIRC
 70
     0
  3
 ----- ~ ----- ~ ---- ~ -----
 72
    65
 73
     3
 40
9.0
 49
7.0
 74
     0
 49
-1.0
 74
     2
 75
     0
340
10
 46
1.0
 50
0.0
 44
-0.3
 45
-0.6
  9
~
 49
-1.0
 74
     0
  0
LTYPE
  5
1F9
330
5
100
AcDbSymbolTableRecord
100
AcDbLinetypeTableRecord
  2
DN 010
 70
     0
  3
 DN10  ---- 10 ---- 10 ---- 10 ----
 72
    65
 73
     3
 40
9.0
 49
5.0
 74
     0
 49
-2.0
 74
     2
 75
     0
340
10
 46
1.0
 50
0.0
 44
-0.5
 45
-0.5
  9
10
 49
-2.0
 74
     0
  0
LTYPE
  5
1FA
330
5
100
AcDbSymbolTableRecord
100
AcDbLinetypeTableRecord
  2
DN 015
 70
     0
  3
 DN15  ---- 15 ---- 15 ---- 15 ----
 72
    65
 73
     3
 40
9.0
 49
5.0
 74
     0
 49
-2.0
 74
     2
 75
     0
340
10
 46
1.0
 50
0.0
 44
-0.5
 45
-0.5
  9
15
 49
-2.0
 74
     0
  0
LTYPE
  5
1FB
330
5
100
AcDbSymbolTableRecord
100
AcDbLinetypeTableRecord
  2
DN 020
 70
     0
  3
 DN20  ---- 20 ---- 20 ---- 20 ----
 72
    65
 73
     3
 40
9.0
 49
5.0
 74
     0
 49
-2.0
 74
     2
 75
     0
340
10
 46
1.0
 50
0.0
 44
-0.5
 45
-0.5
  9
20
 49
-2.0
 74
     0
  0
LTYPE
  5
1FC
330
5
100
AcDbSymbolTableRecord
100
AcDbLinetypeTableRecord
  2
DN 025
 70
     0
  3
 DN25  ---- 25 ---- 25 ---- 25 ----
 72
    65
 73
     3
 40
9.0
 49
5.0
 74
     0
 49
-2.0
 74
     2
 75
     0
340
10
 46
1.0
 50
0.0
 44
-0.5
 45
-0.5
  9
25
 49
-2.0
 74
     0
  0
LTYPE
  5
1FD
330
5
100
AcDbSymbolTableRecord
100
AcDbLinetypeTableRecord
  2
DN 032
 70
     0
  3
 DN32  ---- 32 ---- 32 ---- 32 ----
 72
    65
 73
     3
 40
9.0
 49
5.0
 74
     0
 49
-2.0
 74
     2
 75
     0
340
10
 46
1.0
 50
0.0
 44
-0.5
 45
-0.5
  9
32
 49
-2.0
 74
     0
  0
LTYPE
  5
1FE
330
5
100
AcDbSymbolTableRecord
100
AcDbLinetypeTableRecord
  2
DN 040
 70
     0
  3
 DN40  ---- 40 ---- 40 ---- 40 ----
 72
    65
 73
     3
 40
9.0
 49
5.0
 74
     0
 49
-2.0
 74
     2
 75
     0
340
10
 46
1.0
 50
0.0
 44
-0.5
 45
-0.5
  9
40
 49
-2.0
 74
     0
  0
LTYPE
  5
1FF
330
5
100
AcDbSymbolTableRecord
100
AcDbLinetypeTableRecord
  2
DN 050
 70
     0
  3
 DN50  ---- 50 ---- 50 ---- 50 ----
 72
    65
 73
     3
 40
9.0
 49
5.0
 74
     0
 49
-2.0
 74
     2
 75
     0
340
10
 46
1.0
 50
0.0
 44
-0.5
 45
-0.5
  9
50
 49
-2.0
 74
     0
  0
LTYPE
  5
200
330
5
100
AcDbSymbolTableRecord
100
AcDbLinetypeTableRecord
  2
DN 065
 70
     0
  3
 DN65  ---- 65 ---- 65 ---- 65 ----
 72
    65
 73
     3
 40
9.0
 49
5.0
 74
     0
 49
-2.0
 74
     2
 75
     0
340
10
 46
1.0
 50
0.0
 44
-0.5
 45
-0.5
  9
65
 49
-2.0
 74
     0
  0
LTYPE
  5
201
330
5
100
AcDbSymbolTableRecord
100
AcDbLinetypeTableRecord
  2
DN 080
 70
     0
  3
 DN80  ---- 80 ---- 80 ---- 80 ----
 72
    65
 73
     3
 40
9.0
 49
5.0
 74
     0
 49
-2.0
 74
     2
 75
     0
340
10
 46
1.0
 50
0.0
 44
-0.5
 45
-0.5
  9
80
 49
-2.0
 74
     0
  0
LTYPE
  5
202
330
5
100
AcDbSymbolTableRecord
100
AcDbLinetypeTableRecord
  2
DN 100
 70
     0
  3
 DN100 ---- 100 --- 100 --- 100 ---
 72
    65
 73
     3
 40
9.0
 49
5.0
 74
     0
 49
-2.0
 74
     2
 75
     0
340
10
 46
1.0
 50
0.0
 44
-1.0
 45
-0.5
  9
100
 49
-2.0
 74
     0
  0
LTYPE
  5
203
330
5
100
AcDbSymbolTableRecord
100
AcDbLinetypeTableRecord
  2
DN 125
 70
     0
  3
 DN125 ---- 125 --- 125 --- 125 ---
 72
    65
 73
     3
 40
9.0
 49
5.0
 74
     0
 49
-2.0
 74
     2
 75
     0
340
10
 46
1.0
 50
0.0
 44
-1.0
 45
-0.5
  9
125
 49
-2.0
 74
     0
  0
LTYPE
  5
204
330
5
100
AcDbSymbolTableRecord
100
AcDbLinetypeTableRecord
  2
DN 150
 70
     0
  3
 DN150 ---- 150 --- 150 --- 150 ---
 72
    65
 73
     3
 40
9.0
 49
5.0
 74
     0
 49
-2.0
 74
     2
 75
     0
340
10
 46
1.0
 50
0.0
 44
-1.0
 45
-0.5
  9
150
 49
-2.0
 74
     0
  0
LTYPE
  5
205
330
5
100
AcDbSymbolTableRecord
100
AcDbLinetypeTableRecord
  2
DN 200
 70
     0
  3
 DN200 ---- 200 --- 200 --- 200 ---
 72
    65
 73
     3
 40
9.0
 49
5.0
 74
     0
 49
-2.0
 74
     2
 75
     0
340
10
 46
1.0
 50
0.0
 44
-1.0
 45
-0.5
  9
200
 49
-2.0
 74
     0
  0
LTYPE
  5
206
330
5
100
AcDbSymbolTableRecord
100
AcDbLinetypeTableRecord
  2
DN 250
 70
     0
  3
 DN250 ---- 250 --- 250 --- 250 ---
 72
    65
 73
     3
 40
9.0
 49
5.0
 74
     0
 49
-2.0
 74
     2
 75
     0
340
10
 46
1.0
 50
0.0
 44
-1.0
 45
-0.5
  9
250
 49
-2.0
 74
     0
  0
LTYPE
  5
207
330
5
100
AcDbSymbolTableRecord
100
AcDbLinetypeTableRecord
  2
DN 300
 70
     0
  3
 DN300 ---- 300 --- 300 --- 300 ---
 72
    65
 73
     3
 40
9.0
 49
5.0
 74
     0
 49
-2.0
 74
     2
 75
     0
340
10
 46
1.0
 50
0.0
 44
-1.0
 45
-0.5
  9
300
 49
-2.0
 74
     0
  0
ENDTAB
  0
TABLE
  2
LAYER
  5
2
102
{ACAD_XDICTIONARY
360
22C
102
}
330
0
100
AcDbSymbolTable
 70
    11
  0
LAYER
  5
F
102
{ACAD_XDICTIONARY
360
48E
102
}
330
2
100
AcDbSymbolTableRecord
100
AcDbLayerTableRecord
  2
0
 70
     0
 62
     7
  6
CONTINUOUS
370
    -3
390
90
  0
LAYER
  5
83
102
{ACAD_XDICTIONARY
360
490
102
}
330
2
100
AcDbSymbolTableRecord
100
AcDbLayerTableRecord
  2
OCULTES
 70
     0
 62
    21
  6
ACAD_ISO02W100
370
    13
390
90
  0
LAYER
  5
84
102
{ACAD_XDICTIONARY
360
492
102
}
330
2
100
AcDbSymbolTableRecord
100
AcDbLayerTableRecord
  2
EIXOS
 70
     0
 62
    10
  6
ACAD_ISO10W100
370
    13
390
90
  0
LAYER
  5
85
102
{ACAD_XDICTIONARY
360
494
102
}
330
2
100
AcDbSymbolTableRecord
100
AcDbLayerTableRecord
  2
COTES
 70
     0
 62
   170
  6
CONTINUOUS
370
    13
390
90
  0
LAYER
  5
86
102
{ACAD_XDICTIONARY
360
496
102
}
330
2
100
AcDbSymbolTableRecord
100
AcDbLayerTableRecord
  2
3D
 70
     0
 62
    30
  6
CONTINUOUS
370
    13
390
90
  0
LAYER
  5
98
102
{ACAD_XDICTIONARY
360
498
102
}
330
2
100
AcDbSymbolTableRecord
100
AcDbLayerTableRecord
  2
TEXT
 70
     0
 62
     7
  6
CONTINUOUS
370
    13
390
90
  0
LAYER
  5
223
102
{ACAD_XDICTIONARY
360
224
102
}
330
2
100
AcDbSymbolTableRecord
100
AcDbLayerTableRecord
  2
Hidden (ISO)
 70
     0
 62
     9
  6
ACAD_ISO02W100
370
    18
390
90
  0
LAYER
  5
225
102
{ACAD_XDICTIONARY
360
226
102
}
330
2
100
AcDbSymbolTableRecord
100
AcDbLayerTableRecord
  2
Hidden Narrow (ISO)
 70
     0
 62
     9
  6
CONTINUOUS
370
    18
390
90
  0
LAYER
  5
227
102
{ACAD_XDICTIONARY
360
228
102
}
330
2
100
AcDbSymbolTableRecord
100
AcDbLayerTableRecord
  2
Visible (ISO)
 70
     0
 62
     7
  6
CONTINUOUS
370
    18
390
90
  0
LAYER
  5
229
102
{ACAD_XDICTIONARY
360
22A
102
}
330
2
100
AcDbSymbolTableRecord
100
AcDbLayerTableRecord
  2
Visible Narrow (ISO)
 70
     0
 62
     7
  6
CONTINUOUS
370
    18
390
90
  0
LAYER
  5
22B
102
{ACAD_XDICTIONARY
360
49E
102
}
330
2
100
AcDbSymbolTableRecord
100
AcDbLayerTableRecord
  2
Symbol (ISO)
 70
     0
 62
     7
  6
CONTINUOUS
370
    25
390
90
  0
ENDTAB
  0
TABLE
  2
STYLE
  5
3
330
0
100
AcDbSymbolTable
 70
    13
  0
STYLE
  5
10
330
3
100
AcDbSymbolTableRecord
100
AcDbTextStyleTableRecord
  2
STANDARD
 70
     0
 40
0.0
 41
1.0
 50
0.0
 71
     0
 42
16.83501683501684
  3
ISOCP
  4

  0
STYLE
  5
208
330
3
100
AcDbSymbolTableRecord
100
AcDbTextStyleTableRecord
  2
Annotative
 70
     0
 40
0.0
 41
1.0
 50
0.0
 71
     0
 42
2.5
  3
ARIAL.TTF
  4

1001
AcadAnnotative
1000
AnnotativeData
1002
{
1070
     1
1070
     1
1002
}
1001
ACAD
1000
Arial
1071
       34
  0
STYLE
  5
209
330
3
100
AcDbSymbolTableRecord
100
AcDbTextStyleTableRecord
  2
CP_TXT
 70
     0
 40
0.0
 41
1.0
 50
0.0
 71
     0
 42
2.5
  3
ARIAL.TTF
  4

1001
ACAD
1000
Arial
1071
       34
  0
STYLE
  5
20A
330
3
100
AcDbSymbolTableRecord
100
AcDbTextStyleTableRecord
  2

 70
     1
 40
0.0
 41
1.0
 50
0.0
 71
     0
 42
2.5
  3
LTYPESHP.SHX
  4

  0
STYLE
  5
20B
330
3
100
AcDbSymbolTableRecord
100
AcDbTextStyleTableRecord
  2
CP_ATTR
 70
     0
 40
0.0
 41
1.0
 50
0.0
 71
     0
 42
0.2
  3
ARIAL.TTF
  4

1001
ACAD
1000
Arial
1071
       34
  0
STYLE
  5
20C
330
3
100
AcDbSymbolTableRecord
100
AcDbTextStyleTableRecord
  2
CP_TXT_IT
 70
     0
 40
0.0
 41
1.0
 50
15.0
 71
     0
 42
2.5
  3
ARIAL.TTF
  4

1001
ACAD
1000
Arial
1071
       34
  0
STYLE
  5
20D
330
3
100
AcDbSymbolTableRecord
100
AcDbTextStyleTableRecord
  2
CP_TXTCON
 70
     0
 40
0.0
 41
0.8
 50
0.0
 71
     0
 42
2.5
  3
ARIAL.TTF
  4

1001
ACAD
1000
Arial
1071
       34
  0
STYLE
  5
20E
330
3
100
AcDbSymbolTableRecord
100
AcDbTextStyleTableRecord
  2
CP_TXTCON_IT
 70
     0
 40
0.0
 41
0.8
 50
15.0
 71
     0
 42
2.5
  3
ARIAL.TTF
  4

1001
ACAD
1000
Arial
1071
       34
  0
STYLE
  5
20F
330
3
100
AcDbSymbolTableRecord
100
AcDbTextStyleTableRecord
  2
CP_ELATT
 70
     0
 40
0.0
 41
1.0
 50
0.0
 71
     0
 42
2.5
  3
ARIAL.TTF
  4

1001
ACAD
1000
Arial
1071
       34
  0
STYLE
  5
210
330
3
100
AcDbSymbolTableRecord
100
AcDbTextStyleTableRecord
  2
CP_ELATT_IT
 70
     0
 40
0.0
 41
1.0
 50
15.0
 71
     0
 42
2.5
  3
ARIAL.TTF
  4

1001
ACAD
1000
Arial
1071
       34
  0
STYLE
  5
211
330
3
100
AcDbSymbolTableRecord
100
AcDbTextStyleTableRecord
  2
CP_ISOTXT
 70
     0
 40
0.0
 41
1.0
 50
0.0
 71
     0
 42
2.5
  3
cp_isocp.shx
  4

  0
STYLE
  5
212
330
3
100
AcDbSymbolTableRecord
100
AcDbTextStyleTableRecord
  2
DYN_DIM
 70
     0
 40
0.0
 41
1.0
 50
0.0
 71
     0
 42
2.5
  3
ARIAL.TTF
  4

1001
ACAD
1000
Arial
1071
       34
  0
STYLE
  5
213
330
3
100
AcDbSymbolTableRecord
100
AcDbTextStyleTableRecord
  2
CP_SIGNAL
 70
     0
 40
0.0
 41
1.0
 50
0.0
 71
     0
 42
2.5
  3
cp_simplex.shx
  4

  0
ENDTAB
  0
TABLE
  2
VIEW
  5
6
330
0
100
AcDbSymbolTable
 70
     0
  0
ENDTAB
  0
TABLE
  2
UCS
  5
7
330
0
100
AcDbSymbolTable
 70
     0
  0
ENDTAB
  0
TABLE
  2
APPID
  5
9
330
0
100
AcDbSymbolTable
 70
     8
  0
APPID
  5
11
330
9
100
AcDbSymbolTableRecord
100
AcDbRegAppTableRecord
  2
ACAD
 70
     0
  0
APPID
  5
217
330
9
100
AcDbSymbolTableRecord
100
AcDbRegAppTableRecord
  2
ACAD_PSEXT
 70
     0
  0
APPID
  5
218
330
9
100
AcDbSymbolTableRecord
100
AcDbRegAppTableRecord
  2
AcadAnnoPO
 70
     0
  0
APPID
  5
219
330
9
100
AcDbSymbolTableRecord
100
AcDbRegAppTableRecord
  2
AcadAnnotative
 70
     0
  0
APPID
  5
21A
330
9
100
AcDbSymbolTableRecord
100
AcDbRegAppTableRecord
  2
ACAD_DSTYLE_DIMJAG
 70
     0
  0
APPID
  5
21B
330
9
100
AcDbSymbolTableRecord
100
AcDbRegAppTableRecord
  2
ACAD_DSTYLE_DIMTALN
 70
     0
  0
APPID
  5
21C
330
9
100
AcDbSymbolTableRecord
100
AcDbRegAppTableRecord
  2
ACAD_MLEADERVER
 70
     0
  0
APPID
  5
21D
330
9
100
AcDbSymbolTableRecord
100
AcDbRegAppTableRecord
  2
DCO15
 70
     0
  0
ENDTAB
  0
TABLE
  2
DIMSTYLE
  5
A
330
0
100
AcDbSymbolTable
 70
     4
100
AcDbDimStyleTable
 71
     1
340
7D
  0
DIMSTYLE
105
7D
330
A
100
AcDbSymbolTableRecord
100
AcDbDimStyleTableRecord
  2
ISO-25_WS
 70
     0
 40
6.734006734006734
 41
2.5
 42
0.625
 43
3.75
 44
1.25
 73
     0
 74
     0
 77
     1
 78
     8
140
2.5
141
2.5
143
0.0394
147
0.625
171
     4
172
     1
273
     8
274
     4
340
10
  0
DIMSTYLE
105
214
330
A
100
AcDbSymbolTableRecord
100
AcDbDimStyleTableRecord
  2
Standard
 70
     0
340
10
  0
DIMSTYLE
105
215
330
A
100
AcDbSymbolTableRecord
100
AcDbDimStyleTableRecord
  2
Opisowy
 70
     0
 40
0.0
 41
2.5
 42
0.625
 43
3.75
 44
1.25
 73
     0
 74
     0
 77
     1
 78
     8
140
2.5
141
2.5
143
0.03937007874016
147
0.625
171
     3
172
     1
271
     2
272
     2
274
     3
278
    44
283
     0
284
     8
340
10
1001
AcadAnnotative
1000
AnnotativeData
1002
{
1070
     1
1070
     1
1002
}
1001
ACAD_DSTYLE_DIMJAG
1070
   388
1040
1.5
1001
ACAD_DSTYLE_DIMTALN
1070
   392
1070
     0
  0
DIMSTYLE
105
216
330
A
100
AcDbSymbolTableRecord
100
AcDbDimStyleTableRecord
  2
ISO-25
 70
     0
 41
2.5
 42
0.625
 43
3.75
 44
1.25
 73
     0
 74
     0
 77
     1
 78
     8
140
2.5
141
2.5
143
0.03937007874016
147
0.625
171
     3
172
     1
271
     2
272
     2
274
     3
278
    44
283
     0
284
     8
340
10
  0
ENDTAB
  0
TABLE
  2
BLOCK_RECORD
  5
1
330
0
100
AcDbSymbolTable
 70
     1
  0
BLOCK_RECORD
  5
1A
330
1
100
AcDbSymbolTableRecord
100
AcDbBlockTableRecord
  2
*MODEL_SPACE
340
93
  0
BLOCK_RECORD
  5
17
330
1
100
AcDbSymbolTableRecord
100
AcDbBlockTableRecord
  2
*PAPER_SPACE
340
94
  0
ENDTAB
  0
ENDSEC
  0
SECTION
  2
BLOCKS
  0
BLOCK
  5
1B
330
1A
100
AcDbEntity
  8
0
100
AcDbBlockBegin
  2
*MODEL_SPACE
 70
     0
 10
0.0
 20
0.0
 30
0.0
  3
*MODEL_SPACE
  1

  0
ENDBLK
  5
1C
330
1A
100
AcDbEntity
  8
0
100
AcDbBlockEnd
  0
BLOCK
  5
18
330
17
100
AcDbEntity
 67
     1
  8
0
100
AcDbBlockBegin
  2
*PAPER_SPACE
 70
     0
 10
0.0
 20
0.0
 30
0.0
  3
*PAPER_SPACE
  1

  0
ENDBLK
  5
19
330
17
100
AcDbEntity
 67
     1
  8
0
100
AcDbBlockEnd
  0
ENDSEC
  0
SECTION
  2
ENTITIES
  0
LINE
  5
361
330
1A
100
AcDbEntity
  8
0
100
AcDbLine
 10
1195.798057158441
 20
2370.532486113122
 30
0.0
 11
1195.798057158441
 21
1320.860152161001
 31
0.0
  0
LINE
  5
362
330
1A
100
AcDbEntity
  8
0
100
AcDbLine
 10
1195.798057158441
 20
2370.532486113122
 30
0.0
 11
1195.798057158441
 21
2270.532486113122
 31
0.0
  0
LINE
  5
363
330
1A
100
AcDbEntity
  8
0
100
AcDbLine
 10
2367.369263071433
 20
2270.532486113122
 30
0.0
 11
805.2743274870953
 21
2270.532486113122
 31
0.0
  0
LINE
  5
364
330
1A
100
AcDbEntity
  8
0
100
AcDbLine
 10
2367.369263071433
 20
2370.532486113122
 30
0.0
 11
2367.369263071433
 21
1320.860152161001
 31
0.0
  0
LINE
  5
365
330
1A
100
AcDbEntity
  8
0
100
AcDbLine
 10
2367.369263071433
 20
2370.532486113122
 30
0.0
 11
805.2743274870953
 21
2370.532486113122
 31
0.0
  0
LINE
  5
366
330
1A
100
AcDbEntity
  8
0
100
AcDbLine
 10
805.2743274870953
 20
2370.532486113122
 30
0.0
 11
805.2743274870953
 21
2270.532486113122
 31
0.0
  0
LINE
  5
367
330
1A
100
AcDbEntity
  8
0
100
AcDbLine
 10
805.2743274870953
 20
2270.532486113122
 30
0.0
 11
805.2743274870953
 21
1320.860152161001
 31
0.0
  0
MTEXT
  5
368
330
1A
100
AcDbEntity
  8
0
100
AcDbMText
 10
1218.949871427627
 20
2332.025747746124
 30
0.0
 40
25.0
 41
782.3471997944233
 71
     1
 72
     5
  1
Descripción familia: MÉNSULA ARQUITECTÓNICA
 73
     1
 44
1.0
1001
ACAD
1000
ACAD_MTEXT_COLUMN_INFO_BEGIN
1070
    75
1070
     2
1070
    79
1070
     0
1070
    76
1070
     1
1070
    78
1070
     0
1070
    48
1040
782.3471997944233
1070
    49
1040
84.1750841750842
1070
    50
1070
     1
1040
0.0
1000
ACAD_MTEXT_COLUMN_INFO_END
1000
MTEXTBEGIN
1070
    73
1070
     1
1070
    44
1040
1.0
1070
    74
1070
     0
1000
MTEXTEND
  0
MTEXT
  5
369
330
1A
100
AcDbEntity
  8
0
100
AcDbMText
 10
1231.572592437114
 20
2242.129480275324
 30
0.0
 40
15.0
 41
782.3471997944233
 71
     1
 72
     5
  1
Vistas
 73
     1
 44
1.0
1001
ACAD
1000
ACAD_MTEXT_COLUMN_INFO_BEGIN
1070
    75
1070
     2
1070
    79
1070
     0
1070
    76
1070
     1
1070
    78
1070
     0
1070
    48
1040
782.3471997944233
1070
    49
1040
84.1750841750842
1070
    50
1070
     1
1040
0.0
1000
ACAD_MTEXT_COLUMN_INFO_END
1000
MTEXTBEGIN
1070
    73
1070
     1
1070
    44
1040
1.0
1070
    74
1070
     0
1000
MTEXTEND
  0
MTEXT
  5
36A
330
1A
100
AcDbEntity
  8
0
100
AcDbMText
 10
838.2213896854228
 20
2241.735274476214
 30
0.0
 40
15.0
 41
782.3471997944233
 71
     1
 72
     5
  1
Perspectiva
 73
     1
 44
1.0
1001
ACAD
1000
ACAD_MTEXT_COLUMN_INFO_BEGIN
1070
    75
1070
     2
1070
    79
1070
     0
1070
    76
1070
     1
1070
    78
1070
     0
1070
    48
1040
782.3471997944233
1070
    49
1040
84.1750841750842
1070
    50
1070
     1
1040
0.0
1000
ACAD_MTEXT_COLUMN_INFO_END
1000
MTEXTBEGIN
1070
    73
1070
     1
1070
    44
1040
1.0
1070
    74
1070
     0
1000
MTEXTEND
  0
MTEXT
  5
36B
330
1A
100
AcDbEntity
  8
0
100
AcDbMText
 10
828.4261417562811
 20
2328.295099518804
 30
0.0
 40
30.0
 41
348.7495265615799
 71
     1
 72
     5
  1
{\H0.83333x;Código}: {\fTahoma|b0|i0|c0|p34;CMA-01}
 73
     1
 44
1.0
1001
ACAD
1000
ACAD_MTEXT_COLUMN_INFO_BEGIN
1070
    75
1070
     2
1070
    79
1070
     0
1070
    76
1070
     1
1070
    78
1070
     0
1070
    48
1040
348.7495265615799
1070
    49
1040
84.1750841750842
1070
    50
1070
     1
1040
0.0
1000
ACAD_MTEXT_COLUMN_INFO_END
1000
MTEXTBEGIN
1070
    73
1070
     1
1070
    44
1040
1.0
1070
    74
1070
     0
1000
MTEXTEND
  0
ELLIPSE
  5
36C
330
1A
100
AcDbEntity
  8
Visible (ISO)
100
AcDbEllipse
 10
1029.793150850099
 20
1727.422733695699
 30
0.0
 11
1.970852373933675
 21
3.480767288998217
 31
0.0
210
0.0
220
0.0
230
1.0
 40
0.5744087515942688
 41
0.0
 42
6.283185307179584
  0
ELLIPSE
  5
36D
330
1A
100
AcDbEntity
  8
Visible (ISO)
100
AcDbEllipse
 10
1028.724683271135
 20
1728.027712911381
 30
0.0
 11
-1.970852373933468
 21
-3.480767288998332
 31
0.0
210
0.0
220
0.0
230
1.0
 40
0.5744087515942691
 41
0.2704854833205372
 42
2.871107170269293
  0
LINE
  5
36E
330
1A
100
AcDbEntity
  8
Visible Narrow (ISO)
100
AcDbLine
 10
934.2090747020483
 20
1872.398164842241
 30
0.0
 11
934.9434222976125
 21
1871.090511462174
 31
0.0
  0
LINE
  5
36F
330
1A
100
AcDbEntity
  8
Visible (ISO)
100
AcDbLine
 10
934.9434222976125
 20
1871.090511462174
 30
0.0
 11
949.2832405672707
 21
1878.664579703612
 31
0.0
  0
LINE
  5
370
330
1A
100
AcDbEntity
  8
Visible (ISO)
100
AcDbLine
 10
948.548892971703
 20
1879.972233083682
 30
0.0
 11
949.2832405672707
 21
1878.664579703612
 31
0.0
  0
LINE
  5
371
330
1A
100
AcDbEntity
  8
Visible (ISO)
100
AcDbLine
 10
934.2090747020483
 20
1872.398164842241
 30
0.0
 11
948.548892971703
 21
1879.972233083682
 31
0.0
  0
LINE
  5
372
330
1A
100
AcDbEntity
  8
Visible (ISO)
100
AcDbLine
 10
949.2832405672707
 20
1878.664579703612
 30
0.0
 11
950.0617855307647
 21
1879.115615090012
 31
0.0
  0
LINE
  5
373
330
1A
100
AcDbEntity
  8
Visible (ISO)
100
AcDbLine
 10
934.1424261800785
 20
1705.850780561996
 30
0.0
 11
934.6093023142129
 21
1870.387837297788
 31
0.0
  0
LINE
  5
374
330
1A
100
AcDbEntity
  8
Visible Narrow (ISO)
100
AcDbLine
 10
933.5408347352496
 20
1870.99281651347
 30
0.0
 11
934.6093023142129
 21
1870.387837297788
 31
0.0
  0
LINE
  5
375
330
1A
100
AcDbEntity
  8
Visible (ISO)
100
AcDbLine
 10
933.0739586011114
 20
1706.455759777678
 30
0.0
 11
933.5408347352496
 21
1870.99281651347
 31
0.0
  0
LINE
  5
376
330
1A
100
AcDbEntity
  8
Visible Narrow (ISO)
100
AcDbLine
 10
933.0739586011114
 20
1706.455759777678
 30
0.0
 11
934.1424261800785
 21
1705.850780561996
 31
0.0
  0
LINE
  5
377
330
1A
100
AcDbEntity
  8
Visible (ISO)
100
AcDbLine
 10
967.9737437373878
 20
1685.463469031636
 30
0.0
 11
935.2074046491434
 21
1704.016164979249
 31
0.0
  0
LINE
  5
378
330
1A
100
AcDbEntity
  8
Visible Narrow (ISO)
100
AcDbLine
 10
935.2039155392413
 20
1702.786528612184
 30
0.0
 11
935.2074046491434
 21
1704.016164979249
 31
0.0
  0
LINE
  5
379
330
1A
100
AcDbEntity
  8
Visible (ISO)
100
AcDbLine
 10
967.9702546274894
 20
1684.233832664572
 30
0.0
 11
935.2039155392413
 21
1702.786528612184
 31
0.0
  0
LINE
  5
37A
330
1A
100
AcDbEntity
  8
Visible Narrow (ISO)
100
AcDbLine
 10
967.9702546274894
 20
1684.233832664572
 30
0.0
 11
967.9737437373878
 21
1685.463469031636
 31
0.0
  0
LINE
  5
37B
330
1A
100
AcDbEntity
  8
Visible (ISO)
100
AcDbLine
 10
969.085243671776
 20
1700.024005009751
 30
0.0
 11
969.0457004262535
 21
1686.088126183017
 31
0.0
  0
LINE
  5
37C
330
1A
100
AcDbEntity
  8
Visible (ISO)
100
AcDbLine
 10
1088.40134004275
 20
1769.147542061703
 30
0.0
 11
1082.45469248416
 21
1765.702463607468
 31
0.0
  0
LINE
  5
37D
330
1A
100
AcDbEntity
  8
Visible (ISO)
100
AcDbLine
 10
976.1038375759525
 20
1704.090095424571
 30
0.0
 11
969.085243671776
 21
1700.024005009751
 31
0.0
  0
LINE
  5
37E
330
1A
100
AcDbEntity
  8
Visible Narrow (ISO)
100
AcDbLine
 10
970.1141680052169
 20
1685.483146967335
 30
0.0
 11
969.0457004262535
 21
1686.088126183017
 31
0.0
  0
LINE
  5
37F
330
1A
100
AcDbEntity
  8
Visible (ISO)
100
AcDbLine
 10
970.1537112507431
 20
1699.419025794068
 30
0.0
 11
970.1141680052169
 21
1685.483146967335
 31
0.0
  0
LINE
  5
380
330
1A
100
AcDbEntity
  8
Visible (ISO)
100
AcDbLine
 10
970.1537112507431
 20
1699.419025794068
 30
0.0
 11
969.085243671776
 21
1700.024005009751
 31
0.0
  0
LINE
  5
381
330
1A
100
AcDbEntity
  8
Visible (ISO)
100
AcDbLine
 10
1089.469807621717
 20
1768.54256284602
 30
0.0
 11
1088.40134004275
 21
1769.147542061703
 31
0.0
  0
LINE
  5
382
330
1A
100
AcDbEntity
  8
Visible (ISO)
100
AcDbLine
 10
1089.469807621717
 20
1768.54256284602
 30
0.0
 11
1089.430264376191
 21
1754.606684019288
 31
0.0
  0
LINE
  5
383
330
1A
100
AcDbEntity
  8
Visible (ISO)
100
AcDbLine
 10
970.1537112507431
 20
1699.419025794068
 30
0.0
 11
1089.469807621717
 21
1768.54256284602
 31
0.0
  0
LINE
  5
384
330
1A
100
AcDbEntity
  8
Visible Narrow (ISO)
100
AcDbLine
 10
947.9086414065896
 20
1880.334751233344
 30
0.0
 11
934.2090747020483
 21
1872.398164842241
 31
0.0
  0
ELLIPSE
  5
385
330
1A
100
AcDbEntity
  8
Visible (ISO)
100
AcDbEllipse
 10
935.6777698931765
 20
1869.782858082104
 30
0.0
 11
-1.503854988040149
 21
2.595846716381234
 31
0.0
210
0.0
220
0.0
230
1.0
 40
0.5848610804864867
 41
6.260284320238675
 42
7.070067892808874
  0
LINE
  5
386
330
1A
100
AcDbEntity
  8
Visible Narrow (ISO)
100
AcDbLine
 10
934.6093023142129
 20
1870.387837297788
 30
0.0
 11
941.6278962183897
 21
1874.453927712607
 31
0.0
  0
LINE
  5
387
330
1A
100
AcDbEntity
  8
Visible Narrow (ISO)
100
AcDbLine
 10
934.1424261800785
 20
1705.850780561996
 30
0.0
 11
941.1610200842515
 21
1709.916870976817
 31
0.0
  0
ELLIPSE
  5
388
330
1A
100
AcDbEntity
  8
Visible (ISO)
100
AcDbEllipse
 10
935.6777698931765
 20
1869.782858082104
 30
0.0
 11
-0.7519274940200653
 21
1.2979233581906
 31
0.0
210
0.0
220
0.0
230
1.0
 40
0.5848610804864866
 41
6.260284320238699
 42
7.070067892808912
  0
ELLIPSE
  5
389
330
1A
100
AcDbEntity
  8
Visible (ISO)
100
AcDbEllipse
 10
935.2108937590418
 20
1705.245801346313
 30
0.0
 11
-1.503854988039951
 21
2.595846716381255
 31
0.0
210
0.0
220
0.0
230
1.0
 40
0.5848610804864866
 41
0.786882585629547
 42
2.35767891242442
  0
LINE
  5
38A
330
1A
100
AcDbEntity
  8
Visible Narrow (ISO)
100
AcDbLine
 10
935.2074046491434
 20
1704.016164979249
 30
0.0
 11
942.2259985533164
 21
1708.082255394069
 31
0.0
  0
LINE
  5
38B
330
1A
100
AcDbEntity
  8
Visible Narrow (ISO)
100
AcDbLine
 10
967.9737437373878
 20
1685.463469031636
 30
0.0
 11
969.0456853588912
 21
1686.084478255413
 31
0.0
  0
ELLIPSE
  5
38C
330
1A
100
AcDbEntity
  8
Visible (ISO)
100
AcDbEllipse
 10
935.2108937590418
 20
1705.245801346313
 30
0.0
 11
-0.7519274940199825
 21
1.297923358190639
 31
0.0
210
0.0
220
0.0
230
1.0
 40
0.5848610804864866
 41
0.7868825856295257
 42
2.357678912424463
  0
ELLIPSE
  5
38D
330
1A
100
AcDbEntity
  8
Visible (ISO)
100
AcDbEllipse
 10
1087.29332921826
 20
1755.816642450653
 30
0.0
 11
1.50385498804008
 21
-2.595846716381116
 31
0.0
210
0.0
220
0.0
230
1.0
 40
0.5848610804864866
 41
0.0
 42
0.7868825856292503
  0
LINE
  5
38E
330
1A
100
AcDbEntity
  8
Visible Narrow (ISO)
100
AcDbLine
 10
1089.430264376191
 20
1754.606684019288
 30
0.0
 11
970.1141680052169
 21
1685.483146967335
 31
0.0
  0
ELLIPSE
  5
38F
330
1A
100
AcDbEntity
  8
Visible (ISO)
100
AcDbEllipse
 10
967.97723284729
 20
1686.693105398701
 30
0.0
 11
1.503854988040111
 21
-2.595846716381172
 31
0.0
210
0.0
220
0.0
230
1.0
 40
0.5848610804864866
 41
5.499271566013963
 42
7.070067892808856
  0
ELLIPSE
  5
390
330
1A
100
AcDbEntity
  8
Visible (ISO)
100
AcDbEllipse
 10
967.97723284729
 20
1686.693105398701
 30
0.0
 11
0.7519274940200563
 21
-1.297923358190586
 31
0.0
210
0.0
220
0.0
230
1.0
 40
0.5848610804864866
 41
5.499271566014001
 42
7.070067892808947
  0
LINE
  5
391
330
1A
100
AcDbEntity
  8
Visible (ISO)
100
AcDbLine
 10
934.173914905139
 20
1872.378704798486
 30
0.0
 11
947.9078477887961
 21
1880.335200589304
 31
0.0
  0
LINE
  5
392
330
1A
100
AcDbEntity
  8
Visible (ISO)
100
AcDbLine
 10
969.4810878353273
 20
1684.09725868232
 30
0.0
 11
1088.797184206302
 21
1753.220795734273
 31
0.0
  0
ELLIPSE
  5
393
330
1A
100
AcDbEntity
  8
Visible (ISO)
100
AcDbEllipse
 10
1030.249061210266
 20
1888.095218992143
 30
0.0
 11
1.724495827191964
 21
3.045671377873441
 31
0.0
210
0.0
220
0.0
230
1.0
 40
0.5744087515942687
 41
0.0
 42
6.283185307179584
  0
LINE
  5
394
330
1A
100
AcDbEntity
  8
Visible Narrow (ISO)
100
AcDbLine
 10
927.9151138443848
 20
1899.866073700651
 30
0.0
 11
931.4766724409309
 21
1897.849476315041
 31
0.0
  0
LINE
  5
395
330
1A
100
AcDbEntity
  8
Visible (ISO)
100
AcDbLine
 10
931.4766724409309
 20
1897.849476315041
 30
0.0
 11
931.534824272585
 21
1918.343415766118
 31
0.0
  0
LINE
  5
396
330
1A
100
AcDbEntity
  8
Visible (ISO)
100
AcDbLine
 10
927.9732656760389
 20
1920.360013151728
 30
0.0
 11
931.534824272585
 21
1918.343415766118
 31
0.0
  0
LINE
  5
397
330
1A
100
AcDbEntity
  8
Visible (ISO)
100
AcDbLine
 10
927.9151138443848
 20
1899.866073700651
 30
0.0
 11
927.9732656760389
 21
1920.360013151728
 31
0.0
  0
LINE
  5
398
330
1A
100
AcDbEntity
  8
Visible (ISO)
100
AcDbLine
 10
1050.850920643559
 20
1987.46695281807
 30
0.0
 11
1050.792768811905
 21
1966.973013366992
 31
0.0
  0
LINE
  5
399
330
1A
100
AcDbEntity
  8
Visible (ISO)
100
AcDbLine
 10
931.534824272585
 20
1918.343415766118
 30
0.0
 11
1050.850920643559
 21
1987.46695281807
 31
0.0
  0
LINE
  5
39A
330
1A
100
AcDbEntity
  8
Visible (ISO)
100
AcDbLine
 10
1047.289362047009
 20
1989.483550203681
 30
0.0
 11
1050.850920643559
 21
1987.46695281807
 31
0.0
  0
LINE
  5
39B
330
1A
100
AcDbEntity
  8
Visible (ISO)
100
AcDbLine
 10
963.5190694435369
 20
1875.601311954335
 30
0.0
 11
935.02660067115
 21
1891.734091039216
 31
0.0
  0
LINE
  5
39C
330
1A
100
AcDbEntity
  8
Visible (ISO)
100
AcDbLine
 10
1054.342697042121
 20
1960.857628091167
 30
0.0
 11
1082.835165814511
 21
1944.724849006287
 31
0.0
  0
LINE
  5
39D
330
1A
100
AcDbEntity
  8
Visible (ISO)
100
AcDbLine
 10
927.9732656760389
 20
1920.360013151728
 30
0.0
 11
1047.289362047009
 21
1989.483550203681
 31
0.0
  0
LINE
  5
39E
330
1A
100
AcDbEntity
  8
Visible Narrow (ISO)
100
AcDbLine
 10
935.0149703048192
 20
1887.635303149001
 30
0.0
 11
935.02660067115
 21
1891.734091039216
 31
0.0
  0
LINE
  5
39F
330
1A
100
AcDbEntity
  8
Visible (ISO)
100
AcDbLine
 10
963.5074390772061
 20
1871.502524064121
 30
0.0
 11
935.0149703048192
 21
1887.635303149001
 31
0.0
  0
LINE
  5
3A0
330
1A
100
AcDbEntity
  8
Visible Narrow (ISO)
100
AcDbLine
 10
963.5074390772061
 20
1871.502524064121
 30
0.0
 11
963.5190694435369
 21
1875.601311954335
 31
0.0
  0
LINE
  5
3A1
330
1A
100
AcDbEntity
  8
Visible (ISO)
100
AcDbLine
 10
970.5724044386515
 20
1846.975389841822
 30
0.0
 11
970.6189259039748
 21
1863.370541402684
 31
0.0
  0
LINE
  5
3A2
330
1A
100
AcDbEntity
  8
Visible (ISO)
100
AcDbLine
 10
1089.888500809622
 20
1916.098926893775
 30
0.0
 11
970.5724044386515
 21
1846.975389841822
 31
0.0
  0
LINE
  5
3A3
330
1A
100
AcDbEntity
  8
Visible (ISO)
100
AcDbLine
 10
1089.935022274945
 20
1932.494078454637
 30
0.0
 11
1089.888500809622
 21
1916.098926893775
 31
0.0
  0
LINE
  5
3A4
330
1A
100
AcDbEntity
  8
Visible Narrow (ISO)
100
AcDbLine
 10
967.0573673074249
 20
1865.387138788294
 30
0.0
 11
970.6189259039748
 21
1863.370541402684
 31
0.0
  0
LINE
  5
3A5
330
1A
100
AcDbEntity
  8
Visible (ISO)
100
AcDbLine
 10
967.0108458421019
 20
1848.991987227433
 30
0.0
 11
967.0573673074249
 21
1865.387138788294
 31
0.0
  0
LINE
  5
3A6
330
1A
100
AcDbEntity
  8
Visible (ISO)
100
AcDbLine
 10
967.0108458421019
 20
1848.991987227433
 30
0.0
 11
970.5724044386515
 21
1846.975389841822
 31
0.0
  0
ELLIPSE
  5
3A7
330
1A
100
AcDbEntity
  8
Visible (ISO)
100
AcDbEllipse
 10
935.0382310374808
 20
1895.83287892943
 30
0.0
 11
-5.012849960133173
 21
8.652822387937536
 31
0.0
210
0.0
220
0.0
230
1.0
 40
0.5848610804864866
 41
0.7868825856295321
 42
2.357678912424423
  0
LINE
  5
3A8
330
1A
100
AcDbEntity
  8
Visible Narrow (ISO)
100
AcDbLine
 10
931.4766724409309
 20
1897.849476315041
 30
0.0
 11
1050.792768811905
 21
1966.973013366992
 31
0.0
  0
ELLIPSE
  5
3A9
330
1A
100
AcDbEntity
  8
Visible (ISO)
100
AcDbEllipse
 10
1054.354327408451
 20
1964.956415981383
 30
0.0
 11
2.506424980067106
 21
-4.326411193968461
 31
0.0
210
0.0
220
0.0
230
1.0
 40
0.5848610804864866
 41
3.928475239218828
 42
5.499271566013742
  0
LINE
  5
3AA
330
1A
100
AcDbEntity
  8
Visible Narrow (ISO)
100
AcDbLine
 10
935.02660067115
 20
1891.734091039216
 30
0.0
 11
1054.342697042121
 21
1960.857628091167
 31
0.0
  0
LINE
  5
3AB
330
1A
100
AcDbEntity
  8
Visible Narrow (ISO)
100
AcDbLine
 10
963.5190694435369
 20
1875.601311954335
 30
0.0
 11
1082.835165814511
 21
1944.724849006287
 31
0.0
  0
ELLIPSE
  5
3AC
330
1A
100
AcDbEntity
  8
Visible (ISO)
100
AcDbEllipse
 10
935.0382310374808
 20
1895.83287892943
 30
0.0
 11
-2.506424980066582
 21
4.326411193968761
 31
0.0
210
0.0
220
0.0
230
1.0
 40
0.5848610804864866
 41
0.7868825856295257
 42
2.357678912424439
  0
ELLIPSE
  5
3AD
330
1A
100
AcDbEntity
  8
Visible (ISO)
100
AcDbEllipse
 10
963.4958087108753
 20
1867.403736173904
 30
0.0
 11
-2.506424980067106
 21
4.326411193968461
 31
0.0
210
0.0
220
0.0
230
1.0
 40
0.5848610804864866
 41
3.928475239218828
 42
5.499271566013742
  0
ELLIPSE
  5
3AE
330
1A
100
AcDbEntity
  8
Visible (ISO)
100
AcDbEllipse
 10
1082.811905081849
 20
1936.527273225857
 30
0.0
 11
5.012849960133166
 21
-8.652822387937529
 31
0.0
210
0.0
220
0.0
230
0.9999999999999996
 40
0.5848610804864866
 41
0.7868825856295257
 42
2.357678912424423
  0
LINE
  5
3AF
330
1A
100
AcDbEntity
  8
Visible Narrow (ISO)
100
AcDbLine
 10
970.6189259039748
 20
1863.370541402684
 30
0.0
 11
1089.935022274945
 21
1932.494078454637
 31
0.0
  0
ELLIPSE
  5
3B0
330
1A
100
AcDbEntity
  8
Visible (ISO)
100
AcDbEllipse
 10
963.4958087108753
 20
1867.403736173904
 30
0.0
 11
-5.012849960134215
 21
8.652822387936922
 31
0.0
210
0.0
220
0.0
230
1.0
 40
0.5848610804864866
 41
3.928475239218867
 42
5.499271566013756
  0
LINE
  5
3B1
330
1A
100
AcDbEntity
  8
Visible (ISO)
100
AcDbLine
 10
977.1723051549161
 20
1703.485116208887
 30
0.0
 11
1082.451213717541
 21
1764.476472431199
 31
0.0
  0
LINE
  5
3B2
330
1A
100
AcDbEntity
  8
Visible (ISO)
100
AcDbLine
 10
977.1723051549161
 20
1703.485116208887
 30
0.0
 11
976.1038375759525
 21
1704.090095424571
 31
0.0
  0
LINE
  5
3B3
330
1A
100
AcDbEntity
  8
Visible (ISO)
100
AcDbLine
 10
1082.451213717541
 20
1764.476472431199
 30
0.0
 11
1082.869906905449
 21
1912.032836478955
 31
0.0
  0
LINE
  5
3B4
330
1A
100
AcDbEntity
  8
Visible (ISO)
100
AcDbLine
 10
977.5909983428245
 20
1851.041480256645
 30
0.0
 11
1082.869906905449
 21
1912.032836478955
 31
0.0
  0
LINE
  5
3B5
330
1A
100
AcDbEntity
  8
Visible (ISO)
100
AcDbLine
 10
977.5909983428245
 20
1851.041480256645
 30
0.0
 11
977.1723051549161
 21
1703.485116208887
 31
0.0
  0
LINE
  5
3B6
330
1A
100
AcDbEntity
  8
Visible (ISO)
100
AcDbLine
 10
941.1610200842515
 20
1709.916870976817
 30
0.0
 11
941.6278962183859
 21
1874.453927712607
 31
0.0
  0
LINE
  5
3B7
330
1A
100
AcDbEntity
  8
Visible (ISO)
100
AcDbLine
 10
969.0649886226056
 20
1692.885695871341
 30
0.0
 11
942.2259985533164
 21
1708.082255394069
 31
0.0
  0
MTEXT
  5
3B8
102
{ACAD_XDICTIONARY
360
4A9
102
}
330
1A
100
AcDbEntity
  8
0
100
AcDbMText
 10
931.5862769526393
 20
2531.524684561992
 30
0.0
 40
100.0
 41
1434.685775750755
 71
     1
 72
     5
  1
{\fArial|b0|i0|c0|p34;\W3.5224; \W1;REGISTROS CMA}
 73
     1
 44
1.0
1001
ACAD
1000
ACAD_MTEXT_COLUMN_INFO_BEGIN
1070
    75
1070
     2
1070
    79
1070
     0
1070
    76
1070
     1
1070
    78
1070
     0
1070
    48
1040
1434.685775750755
1070
    49
1040
84.1750841750842
1070
    50
1070
     1
1040
0.0
1000
ACAD_MTEXT_COLUMN_INFO_END
1000
MTEXTBEGIN
1070
    73
1070
     1
1070
    44
1040
1.0
1070
    74
1070
     0
1000
MTEXTEND
  0
LINE
  5
3B9
330
1A
100
AcDbEntity
  8
Visible Narrow (ISO)
100
AcDbLine
 10
1989.022848713075
 20
1880.973285064456
 30
0.0
 11
1990.057331471694
 21
1879.887078167906
 31
0.0
  0
LINE
  5
3BA
330
1A
100
AcDbEntity
  8
Visible (ISO)
100
AcDbLine
 10
1990.057331471694
 20
1879.887078167906
 30
0.0
 11
2010.126296988937
 21
1899.000378660516
 31
0.0
  0
LINE
  5
3BB
330
1A
100
AcDbEntity
  8
Visible (ISO)
100
AcDbLine
 10
2009.091814230316
 20
1900.086585557067
 30
0.0
 11
2010.126296988937
 21
1899.000378660516
 31
0.0
  0
LINE
  5
3BC
330
1A
100
AcDbEntity
  8
Visible (ISO)
100
AcDbLine
 10
1989.022848713075
 20
1880.973285064456
 30
0.0
 11
2009.091814230316
 21
1900.086585557067
 31
0.0
  0
LINE
  5
3BD
330
1A
100
AcDbEntity
  8
Visible (ISO)
100
AcDbLine
 10
1989.591814230314
 20
1678.086585557068
 30
0.0
 11
1989.591814230315
 21
1878.800871271353
 31
0.0
  0
LINE
  5
3BE
330
1A
100
AcDbEntity
  8
Visible Narrow (ISO)
100
AcDbLine
 10
1988.091814230316
 20
1878.800871271353
 30
0.0
 11
1989.591814230315
 21
1878.800871271353
 31
0.0
  0
LINE
  5
3BF
330
1A
100
AcDbEntity
  8
Visible (ISO)
100
AcDbLine
 10
1988.091814230314
 20
1678.086585557068
 30
0.0
 11
1988.091814230316
 21
1878.800871271353
 31
0.0
  0
LINE
  5
3C0
330
1A
100
AcDbEntity
  8
Visible Narrow (ISO)
100
AcDbLine
 10
1988.091814230314
 20
1678.086585557068
 30
0.0
 11
1989.591814230314
 21
1678.086585557068
 31
0.0
  0
LINE
  5
3C1
330
1A
100
AcDbEntity
  8
Visible (ISO)
100
AcDbLine
 10
2037.091814230314
 20
1676.586585557068
 30
0.0
 11
1991.091814230314
 21
1676.586585557068
 31
0.0
  0
LINE
  5
3C2
330
1A
100
AcDbEntity
  8
Visible Narrow (ISO)
100
AcDbLine
 10
1991.091814230314
 20
1675.086585557068
 30
0.0
 11
1991.091814230314
 21
1676.586585557068
 31
0.0
  0
LINE
  5
3C3
330
1A
100
AcDbEntity
  8
Visible (ISO)
100
AcDbLine
 10
2037.091814230314
 20
1675.086585557068
 30
0.0
 11
1991.091814230314
 21
1675.086585557068
 31
0.0
  0
LINE
  5
3C4
330
1A
100
AcDbEntity
  8
Visible Narrow (ISO)
100
AcDbLine
 10
2037.091814230314
 20
1675.086585557068
 30
0.0
 11
2037.091814230314
 21
1676.586585557068
 31
0.0
  0
LINE
  5
3C5
330
1A
100
AcDbEntity
  8
Visible (ISO)
100
AcDbLine
 10
2038.591814230314
 20
1695.086585557068
 30
0.0
 11
2038.591814230314
 21
1678.086585557068
 31
0.0
  0
LINE
  5
3C6
330
1A
100
AcDbEntity
  8
Visible Narrow (ISO)
100
AcDbLine
 10
2040.091814230315
 20
1678.086585557068
 30
0.0
 11
2038.591814230314
 21
1678.086585557068
 31
0.0
  0
LINE
  5
3C7
330
1A
100
AcDbEntity
  8
Visible (ISO)
100
AcDbLine
 10
2040.091814230315
 20
1695.086585557068
 30
0.0
 11
2040.091814230315
 21
1678.086585557068
 31
0.0
  0
LINE
  5
3C8
330
1A
100
AcDbEntity
  8
Visible (ISO)
100
AcDbLine
 10
2040.091814230315
 20
1695.086585557068
 30
0.0
 11
2038.591814230314
 21
1695.086585557068
 31
0.0
  0
ARC
  5
3C9
330
1A
100
AcDbEntity
  8
Visible (ISO)
100
AcDbCircle
 10
1991.091814230316
 20
1878.800871271353
 30
0.0
 40
3.000000000000078
100
AcDbArc
 50
133.6028189726479
 51
180.0
  0
ARC
  5
3CA
330
1A
100
AcDbEntity
  8
Visible (ISO)
100
AcDbCircle
 10
1991.091814230316
 20
1878.800871271353
 30
0.0
 40
1.500000000000019
100
AcDbArc
 50
133.6028189726479
 51
180.0
  0
ARC
  5
3CB
330
1A
100
AcDbEntity
  8
Visible (ISO)
100
AcDbCircle
 10
1991.091814230314
 20
1678.086585557068
 30
0.0
 40
2.999999999999998
100
AcDbArc
 50
180.0
 51
270.0
  0
ARC
  5
3CC
330
1A
100
AcDbEntity
  8
Visible (ISO)
100
AcDbCircle
 10
1991.091814230314
 20
1678.086585557068
 30
0.0
 40
1.500000000000011
100
AcDbArc
 50
180.0
 51
270.0
  0
ARC
  5
3CD
330
1A
100
AcDbEntity
  8
Visible (ISO)
100
AcDbCircle
 10
2037.091814230314
 20
1678.086585557068
 30
0.0
 40
3.000000000000006
100
AcDbArc
 50
270.0
 51
0.0
  0
ARC
  5
3CE
330
1A
100
AcDbEntity
  8
Visible (ISO)
100
AcDbCircle
 10
2037.091814230314
 20
1678.086585557068
 30
0.0
 40
1.500000000000003
100
AcDbArc
 50
270.0
 51
0.0
  0
LINE
  5
3CF
330
1A
100
AcDbEntity
  8
Visible Narrow (ISO)
100
AcDbLine
 10
1980.091814230314
 20
1910.086585557067
 30
0.0
 11
1985.091814230314
 21
1910.086585557067
 31
0.0
  0
LINE
  5
3D0
330
1A
100
AcDbEntity
  8
Visible (ISO)
100
AcDbLine
 10
1985.091814230314
 20
1910.086585557067
 30
0.0
 11
1985.091814230314
 21
1935.086585557067
 31
0.0
  0
LINE
  5
3D1
330
1A
100
AcDbEntity
  8
Visible (ISO)
100
AcDbLine
 10
1980.091814230314
 20
1935.086585557067
 30
0.0
 11
1985.091814230314
 21
1935.086585557067
 31
0.0
  0
LINE
  5
3D2
330
1A
100
AcDbEntity
  8
Visible (ISO)
100
AcDbLine
 10
1980.091814230314
 20
1910.086585557067
 30
0.0
 11
1980.091814230314
 21
1935.086585557067
 31
0.0
  0
LINE
  5
3D3
330
1A
100
AcDbEntity
  8
Visible (ISO)
100
AcDbLine
 10
2030.091814230314
 20
1905.086585557067
 30
0.0
 11
1990.091814230314
 21
1905.086585557067
 31
0.0
  0
LINE
  5
3D4
330
1A
100
AcDbEntity
  8
Visible Narrow (ISO)
100
AcDbLine
 10
1990.091814230314
 20
1900.086585557067
 30
0.0
 11
1990.091814230314
 21
1905.086585557067
 31
0.0
  0
LINE
  5
3D5
330
1A
100
AcDbEntity
  8
Visible (ISO)
100
AcDbLine
 10
2030.091814230314
 20
1900.086585557067
 30
0.0
 11
1990.091814230314
 21
1900.086585557067
 31
0.0
  0
LINE
  5
3D6
330
1A
100
AcDbEntity
  8
Visible Narrow (ISO)
100
AcDbLine
 10
2030.091814230314
 20
1900.086585557067
 30
0.0
 11
2030.091814230314
 21
1905.086585557067
 31
0.0
  0
LINE
  5
3D7
330
1A
100
AcDbEntity
  8
Visible (ISO)
100
AcDbLine
 10
2040.091814230315
 20
1875.086585557067
 30
0.0
 11
2040.091814230315
 21
1895.086585557067
 31
0.0
  0
LINE
  5
3D8
330
1A
100
AcDbEntity
  8
Visible Narrow (ISO)
100
AcDbLine
 10
2035.091814230314
 20
1895.086585557067
 30
0.0
 11
2040.091814230315
 21
1895.086585557067
 31
0.0
  0
LINE
  5
3D9
330
1A
100
AcDbEntity
  8
Visible (ISO)
100
AcDbLine
 10
2035.091814230314
 20
1875.086585557067
 30
0.0
 11
2035.091814230314
 21
1895.086585557067
 31
0.0
  0
LINE
  5
3DA
330
1A
100
AcDbEntity
  8
Visible (ISO)
100
AcDbLine
 10
2035.091814230314
 20
1875.086585557067
 30
0.0
 11
2040.091814230315
 21
1875.086585557067
 31
0.0
  0
ARC
  5
3DB
330
1A
100
AcDbEntity
  8
Visible (ISO)
100
AcDbCircle
 10
1990.091814230314
 20
1910.086585557067
 30
0.0
 40
10.00000000000001
100
AcDbArc
 50
180.0
 51
270.0
  0
ARC
  5
3DC
330
1A
100
AcDbEntity
  8
Visible (ISO)
100
AcDbCircle
 10
1990.091814230314
 20
1910.086585557067
 30
0.0
 40
4.999999999999998
100
AcDbArc
 50
180.0
 51
270.0
  0
ARC
  5
3DD
330
1A
100
AcDbEntity
  8
Visible (ISO)
100
AcDbCircle
 10
2030.091814230314
 20
1895.086585557067
 30
0.0
 40
5.0
100
AcDbArc
 50
0.0
 51
90.0
  0
ARC
  5
3DE
330
1A
100
AcDbEntity
  8
Visible (ISO)
100
AcDbCircle
 10
2030.091814230314
 20
1895.086585557067
 30
0.0
 40
10.0
100
AcDbArc
 50
0.0
 51
90.0
  0
LINE
  5
3DF
330
1A
100
AcDbEntity
  8
Visible (ISO)
100
AcDbLine
 10
2040.091814230315
 20
1875.086585557067
 30
0.0
 11
2040.091814230315
 21
1695.086585557068
 31
0.0
  0
LINE
  5
3E0
330
1A
100
AcDbEntity
  8
Visible (ISO)
100
AcDbLine
 10
2010.126296988937
 20
1899.000378660516
 30
0.0
 11
2011.266814230316
 21
1900.086585557067
 31
0.0
  0
CIRCLE
  5
3E1
330
1A
100
AcDbEntity
  8
Visible (ISO)
100
AcDbCircle
 10
1738.646572009255
 20
1687.086585557068
 30
0.0
 40
4.0
  0
LINE
  5
3E2
330
1A
100
AcDbEntity
  8
Hidden Narrow (ISO)
100
AcDbLine
 10
1823.646572009238
 20
1880.973285064456
 30
0.0
 11
1653.646572009238
 21
1880.973285064456
 31
0.0
  0
LINE
  5
3E3
330
1A
100
AcDbEntity
  8
Hidden Narrow (ISO)
100
AcDbLine
 10
1653.646572009238
 20
1879.887078167906
 30
0.0
 11
1823.646572009238
 21
1879.887078167906
 31
0.0
  0
LINE
  5
3E4
330
1A
100
AcDbEntity
  8
Hidden Narrow (ISO)
100
AcDbLine
 10
1653.646572009238
 20
1878.800871271353
 30
0.0
 11
1823.646572009238
 21
1878.800871271353
 31
0.0
  0
LINE
  5
3E5
330
1A
100
AcDbEntity
  8
Hidden (ISO)
100
AcDbLine
 10
1653.646572009253
 20
1676.586585557068
 30
0.0
 11
1663.646572009253
 21
1676.586585557068
 31
0.0
  0
LINE
  5
3E6
330
1A
100
AcDbEntity
  8
Hidden (ISO)
100
AcDbLine
 10
1813.646572009252
 20
1676.586585557068
 30
0.0
 11
1823.646572009253
 21
1676.586585557068
 31
0.0
  0
LINE
  5
3E7
330
1A
100
AcDbEntity
  8
Visible (ISO)
100
AcDbLine
 10
1823.646572009253
 20
1675.086585557068
 30
0.0
 11
1653.646572009253
 21
1675.086585557068
 31
0.0
  0
LINE
  5
3E8
330
1A
100
AcDbEntity
  8
Visible (ISO)
100
AcDbLine
 10
1823.646572009253
 20
1675.086585557068
 30
0.0
 11
1823.646572009254
 21
1678.086585557068
 31
0.0
  0
LINE
  5
3E9
330
1A
100
AcDbEntity
  8
Visible Narrow (ISO)
100
AcDbLine
 10
1823.646572009254
 20
1678.086585557068
 30
0.0
 11
1653.646572009255
 21
1678.086585557068
 31
0.0
  0
LINE
  5
3EA
330
1A
100
AcDbEntity
  8
Visible (ISO)
100
AcDbLine
 10
1653.646572009253
 20
1675.086585557068
 30
0.0
 11
1653.646572009255
 21
1678.086585557068
 31
0.0
  0
LINE
  5
3EB
330
1A
100
AcDbEntity
  8
Hidden (ISO)
100
AcDbLine
 10
1653.646572009245
 20
1899.000378660516
 30
0.0
 11
1823.646572009246
 21
1899.000378660516
 31
0.0
  0
LINE
  5
3EC
330
1A
100
AcDbEntity
  8
Visible (ISO)
100
AcDbLine
 10
1653.646572009238
 20
1695.086585557068
 30
0.0
 11
1653.646572009238
 21
1875.086585557067
 31
0.0
  0
LINE
  5
3ED
330
1A
100
AcDbEntity
  8
Visible (ISO)
100
AcDbLine
 10
1823.646572009238
 20
1875.086585557067
 30
0.0
 11
1823.646572009238
 21
1695.086585557068
 31
0.0
  0
LINE
  5
3EE
330
1A
100
AcDbEntity
  8
Visible (ISO)
100
AcDbLine
 10
1653.646572009255
 20
1695.086585557068
 30
0.0
 11
1653.646572009255
 21
1678.086585557068
 31
0.0
  0
LINE
  5
3EF
330
1A
100
AcDbEntity
  8
Visible (ISO)
100
AcDbLine
 10
1823.646572009254
 20
1695.086585557068
 30
0.0
 11
1823.646572009254
 21
1678.086585557068
 31
0.0
  0
LINE
  5
3F0
330
1A
100
AcDbEntity
  8
Visible (ISO)
100
AcDbLine
 10
1653.646572009255
 20
1695.086585557068
 30
0.0
 11
1823.646572009254
 21
1695.086585557068
 31
0.0
  0
CIRCLE
  5
3F1
330
1A
100
AcDbEntity
  8
Visible (ISO)
100
AcDbCircle
 10
1738.646572009255
 20
1883.086585557067
 30
0.0
 40
3.500000000000001
  0
LINE
  5
3F2
330
1A
100
AcDbEntity
  8
Visible (ISO)
100
AcDbLine
 10
1653.646572009238
 20
1910.086585557067
 30
0.0
 11
1653.646572009238
 21
1935.086585557067
 31
0.0
  0
LINE
  5
3F3
330
1A
100
AcDbEntity
  8
Visible (ISO)
100
AcDbLine
 10
1823.646572009238
 20
1935.086585557067
 30
0.0
 11
1823.646572009238
 21
1910.086585557067
 31
0.0
  0
LINE
  5
3F4
330
1A
100
AcDbEntity
  8
Visible (ISO)
100
AcDbLine
 10
1653.646572009238
 20
1935.086585557067
 30
0.0
 11
1823.646572009238
 21
1935.086585557067
 31
0.0
  0
LINE
  5
3F5
330
1A
100
AcDbEntity
  8
Visible (ISO)
100
AcDbLine
 10
1653.646572009255
 20
1875.086585557067
 30
0.0
 11
1653.646572009255
 21
1895.086585557067
 31
0.0
  0
LINE
  5
3F6
330
1A
100
AcDbEntity
  8
Visible (ISO)
100
AcDbLine
 10
1823.646572009254
 20
1875.086585557067
 30
0.0
 11
1653.646572009255
 21
1875.086585557067
 31
0.0
  0
LINE
  5
3F7
330
1A
100
AcDbEntity
  8
Visible (ISO)
100
AcDbLine
 10
1823.646572009254
 20
1895.086585557067
 30
0.0
 11
1823.646572009254
 21
1875.086585557067
 31
0.0
  0
LINE
  5
3F8
330
1A
100
AcDbEntity
  8
Visible Narrow (ISO)
100
AcDbLine
 10
1653.646572009238
 20
1910.086585557067
 30
0.0
 11
1823.646572009238
 21
1910.086585557067
 31
0.0
  0
LINE
  5
3F9
330
1A
100
AcDbEntity
  8
Visible (ISO)
100
AcDbLine
 10
1823.646572009238
 20
1910.086585557067
 30
0.0
 11
1823.646572009238
 21
1905.086585557067
 31
0.0
  0
LINE
  5
3FA
330
1A
100
AcDbEntity
  8
Visible (ISO)
100
AcDbLine
 10
1653.646572009251
 20
1905.086585557067
 30
0.0
 11
1823.646572009251
 21
1905.086585557067
 31
0.0
  0
LINE
  5
3FB
330
1A
100
AcDbEntity
  8
Visible (ISO)
100
AcDbLine
 10
1653.646572009238
 20
1905.086585557067
 30
0.0
 11
1653.646572009238
 21
1910.086585557067
 31
0.0
  0
LINE
  5
3FC
330
1A
100
AcDbEntity
  8
Visible (ISO)
100
AcDbLine
 10
1823.646572009254
 20
1895.086585557067
 30
0.0
 11
1823.646572009251
 21
1905.086585557067
 31
0.0
  0
LINE
  5
3FD
330
1A
100
AcDbEntity
  8
Visible Narrow (ISO)
100
AcDbLine
 10
1653.646572009255
 20
1895.086585557067
 30
0.0
 11
1823.646572009254
 21
1895.086585557067
 31
0.0
  0
LINE
  5
3FE
330
1A
100
AcDbEntity
  8
Visible (ISO)
100
AcDbLine
 10
1653.646572009251
 20
1905.086585557067
 30
0.0
 11
1653.646572009255
 21
1895.086585557067
 31
0.0
  0
LINE
  5
3FF
330
1A
100
AcDbEntity
  8
Hidden (ISO)
100
AcDbLine
 10
1823.646572009251
 20
1900.086585557067
 30
0.0
 11
1813.646572009251
 21
1900.086585557067
 31
0.0
  0
LINE
  5
400
330
1A
100
AcDbEntity
  8
Hidden (ISO)
100
AcDbLine
 10
1663.646572009251
 20
1900.086585557067
 30
0.0
 11
1653.646572009251
 21
1900.086585557067
 31
0.0
  0
LINE
  5
401
330
1A
100
AcDbEntity
  8
Visible (ISO)
100
AcDbLine
 10
1663.646572009255
 20
1695.086585557068
 30
0.0
 11
1813.646572009255
 21
1695.086585557068
 31
0.0
  0
LINE
  5
402
330
1A
100
AcDbEntity
  8
Visible (ISO)
100
AcDbLine
 10
1813.646572009255
 20
1695.086585557068
 30
0.0
 11
1813.646572009255
 21
1875.086585557067
 31
0.0
  0
LINE
  5
403
330
1A
100
AcDbEntity
  8
Visible (ISO)
100
AcDbLine
 10
1663.646572009255
 20
1875.086585557067
 30
0.0
 11
1813.646572009255
 21
1875.086585557067
 31
0.0
  0
LINE
  5
404
330
1A
100
AcDbEntity
  8
Visible (ISO)
100
AcDbLine
 10
1663.646572009255
 20
1875.086585557067
 30
0.0
 11
1663.646572009255
 21
1695.086585557068
 31
0.0
  0
LINE
  5
405
330
1A
100
AcDbEntity
  8
Hidden (ISO)
100
AcDbLine
 10
1663.646572009238
 20
1879.44372841421
 30
0.0
 11
1813.646572009238
 21
1879.44372841421
 31
0.0
  0
LINE
  5
406
330
1A
100
AcDbEntity
  8
Hidden (ISO)
100
AcDbLine
 10
1663.646572009253
 20
1676.586585557068
 30
0.0
 11
1813.646572009252
 21
1676.586585557068
 31
0.0
  0
LINE
  5
407
330
1A
100
AcDbEntity
  8
Hidden (ISO)
100
AcDbLine
 10
1813.646572009252
 20
1676.586585557068
 30
0.0
 11
1813.646572009252
 21
1695.086585557068
 31
0.0
  0
LINE
  5
408
330
1A
100
AcDbEntity
  8
Hidden (ISO)
100
AcDbLine
 10
1663.646572009253
 20
1695.086585557068
 30
0.0
 11
1663.646572009253
 21
1676.586585557068
 31
0.0
  0
LINE
  5
409
330
1A
100
AcDbEntity
  8
Hidden (ISO)
100
AcDbLine
 10
1663.646572009253
 20
1900.086585557067
 30
0.0
 11
1663.646572009253
 21
1875.086585557067
 31
0.0
  0
LINE
  5
40A
330
1A
100
AcDbEntity
  8
Hidden (ISO)
100
AcDbLine
 10
1813.646572009252
 20
1875.086585557067
 30
0.0
 11
1813.646572009252
 21
1900.086585557067
 31
0.0
  0
LINE
  5
40B
330
1A
100
AcDbEntity
  8
Hidden (ISO)
100
AcDbLine
 10
1663.646572009253
 20
1900.086585557067
 30
0.0
 11
1813.646572009252
 21
1900.086585557067
 31
0.0
  0
ARC
  5
40C
330
1A
100
AcDbEntity
  8
Visible (ISO)
100
AcDbCircle
 10
1516.965123906613
 20
1878.800871271353
 30
0.0
 40
3.000000000000078
100
AcDbArc
 50
0.0
 51
46.39718102735209
  0
ARC
  5
40D
330
1A
100
AcDbEntity
  8
Visible (ISO)
100
AcDbCircle
 10
1516.965123906613
 20
1878.800871271353
 30
0.0
 40
1.500000000000115
100
AcDbArc
 50
0.0
 51
46.39718102735209
  0
ARC
  5
40E
330
1A
100
AcDbEntity
  8
Visible (ISO)
100
AcDbCircle
 10
1516.965123906613
 20
1678.086585557068
 30
0.0
 40
2.999999999999998
100
AcDbArc
 50
270.0
 51
0.0
  0
ARC
  5
40F
330
1A
100
AcDbEntity
  8
Visible (ISO)
100
AcDbCircle
 10
1516.965123906613
 20
1678.086585557068
 30
0.0
 40
1.499999999999995
100
AcDbArc
 50
270.0
 51
0.0
  0
ARC
  5
410
330
1A
100
AcDbEntity
  8
Visible (ISO)
100
AcDbCircle
 10
1470.965123906613
 20
1678.086585557068
 30
0.0
 40
3.000000000000006
100
AcDbArc
 50
180.0
 51
270.0
  0
ARC
  5
411
330
1A
100
AcDbEntity
  8
Visible (ISO)
100
AcDbCircle
 10
1470.965123906613
 20
1678.086585557068
 30
0.0
 40
1.499999999999993
100
AcDbArc
 50
180.0
 51
270.0
  0
LINE
  5
412
330
1A
100
AcDbEntity
  8
Visible (ISO)
100
AcDbLine
 10
1497.930641147992
 20
1899.000378660516
 30
0.0
 11
1517.999606665233
 21
1879.887078167906
 31
0.0
  0
LINE
  5
413
330
1A
100
AcDbEntity
  8
Visible Narrow (ISO)
100
AcDbLine
 10
1517.999606665233
 20
1879.887078167906
 30
0.0
 11
1519.034089423854
 21
1880.973285064456
 31
0.0
  0
LINE
  5
414
330
1A
100
AcDbEntity
  8
Visible Narrow (ISO)
100
AcDbLine
 10
1518.465123906613
 20
1878.800871271353
 30
0.0
 11
1519.965123906613
 21
1878.800871271353
 31
0.0
  0
LINE
  5
415
330
1A
100
AcDbEntity
  8
Visible (ISO)
100
AcDbLine
 10
1519.034089423854
 20
1880.973285064456
 30
0.0
 11
1498.965123906612
 21
1900.086585557067
 31
0.0
  0
LINE
  5
416
330
1A
100
AcDbEntity
  8
Visible (ISO)
100
AcDbLine
 10
1498.965123906612
 20
1900.086585557067
 30
0.0
 11
1497.930641147992
 21
1899.000378660516
 31
0.0
  0
LINE
  5
417
330
1A
100
AcDbEntity
  8
Visible (ISO)
100
AcDbLine
 10
1518.465123906613
 20
1878.800871271353
 30
0.0
 11
1518.465123906613
 21
1678.086585557068
 31
0.0
  0
LINE
  5
418
330
1A
100
AcDbEntity
  8
Visible Narrow (ISO)
100
AcDbLine
 10
1518.465123906613
 20
1678.086585557068
 30
0.0
 11
1519.965123906613
 21
1678.086585557068
 31
0.0
  0
LINE
  5
419
330
1A
100
AcDbEntity
  8
Visible Narrow (ISO)
100
AcDbLine
 10
1516.965123906613
 20
1676.586585557068
 30
0.0
 11
1516.965123906613
 21
1675.086585557068
 31
0.0
  0
LINE
  5
41A
330
1A
100
AcDbEntity
  8
Visible (ISO)
100
AcDbLine
 10
1519.965123906613
 20
1678.086585557068
 30
0.0
 11
1519.965123906613
 21
1878.800871271353
 31
0.0
  0
LINE
  5
41B
330
1A
100
AcDbEntity
  8
Visible (ISO)
100
AcDbLine
 10
1516.965123906613
 20
1676.586585557068
 30
0.0
 11
1470.965123906613
 21
1676.586585557068
 31
0.0
  0
LINE
  5
41C
330
1A
100
AcDbEntity
  8
Visible Narrow (ISO)
100
AcDbLine
 10
1470.965123906613
 20
1676.586585557068
 30
0.0
 11
1470.965123906613
 21
1675.086585557068
 31
0.0
  0
LINE
  5
41D
330
1A
100
AcDbEntity
  8
Visible Narrow (ISO)
100
AcDbLine
 10
1469.465123906613
 20
1678.086585557068
 30
0.0
 11
1467.965123906613
 21
1678.086585557068
 31
0.0
  0
LINE
  5
41E
330
1A
100
AcDbEntity
  8
Visible (ISO)
100
AcDbLine
 10
1469.465123906613
 20
1678.086585557068
 30
0.0
 11
1469.465123906613
 21
1695.086585557068
 31
0.0
  0
LINE
  5
41F
330
1A
100
AcDbEntity
  8
Visible (ISO)
100
AcDbLine
 10
1470.965123906613
 20
1675.086585557068
 30
0.0
 11
1516.965123906613
 21
1675.086585557068
 31
0.0
  0
LINE
  5
420
330
1A
100
AcDbEntity
  8
Visible (ISO)
100
AcDbLine
 10
1467.965123906613
 20
1695.086585557068
 30
0.0
 11
1469.465123906613
 21
1695.086585557068
 31
0.0
  0
LINE
  5
421
330
1A
100
AcDbEntity
  8
Visible (ISO)
100
AcDbLine
 10
1467.965123906613
 20
1695.086585557068
 30
0.0
 11
1467.965123906613
 21
1678.086585557068
 31
0.0
  0
LINE
  5
422
330
1A
100
AcDbEntity
  8
Hidden (ISO)
100
AcDbLine
 10
1469.465123906562
 20
1683.086585557068
 30
0.0
 11
1467.965123906562
 21
1683.086585557068
 31
0.0
  0
LINE
  5
423
330
1A
100
AcDbEntity
  8
Hidden (ISO)
100
AcDbLine
 10
1469.465123906562
 20
1691.086585557068
 30
0.0
 11
1467.965123906562
 21
1691.086585557068
 31
0.0
  0
ARC
  5
424
330
1A
100
AcDbEntity
  8
Visible (ISO)
100
AcDbCircle
 10
1517.965123906613
 20
1910.086585557067
 30
0.0
 40
10.00000000000001
100
AcDbArc
 50
270.0
 51
0.0
  0
ARC
  5
425
330
1A
100
AcDbEntity
  8
Visible (ISO)
100
AcDbCircle
 10
1517.965123906613
 20
1910.086585557067
 30
0.0
 40
5.0
100
AcDbArc
 50
270.0
 51
0.0
  0
ARC
  5
426
330
1A
100
AcDbEntity
  8
Visible (ISO)
100
AcDbCircle
 10
1477.965123906613
 20
1895.086585557067
 30
0.0
 40
5.0
100
AcDbArc
 50
90.0
 51
180.0
  0
ARC
  5
427
330
1A
100
AcDbEntity
  8
Visible (ISO)
100
AcDbCircle
 10
1477.965123906613
 20
1895.086585557067
 30
0.0
 40
10.0
100
AcDbArc
 50
90.0
 51
180.0
  0
LINE
  5
428
330
1A
100
AcDbEntity
  8
Visible (ISO)
100
AcDbLine
 10
1522.965123906613
 20
1935.086585557067
 30
0.0
 11
1522.965123906613
 21
1910.086585557067
 31
0.0
  0
LINE
  5
429
330
1A
100
AcDbEntity
  8
Visible Narrow (ISO)
100
AcDbLine
 10
1522.965123906613
 20
1910.086585557067
 30
0.0
 11
1527.965123906613
 21
1910.086585557067
 31
0.0
  0
LINE
  5
42A
330
1A
100
AcDbEntity
  8
Visible Narrow (ISO)
100
AcDbLine
 10
1517.965123906613
 20
1905.086585557067
 30
0.0
 11
1517.965123906613
 21
1900.086585557067
 31
0.0
  0
LINE
  5
42B
330
1A
100
AcDbEntity
  8
Visible (ISO)
100
AcDbLine
 10
1527.965123906613
 20
1910.086585557067
 30
0.0
 11
1527.965123906613
 21
1935.086585557067
 31
0.0
  0
LINE
  5
42C
330
1A
100
AcDbEntity
  8
Visible (ISO)
100
AcDbLine
 10
1527.965123906613
 20
1935.086585557067
 30
0.0
 11
1522.965123906613
 21
1935.086585557067
 31
0.0
  0
LINE
  5
42D
330
1A
100
AcDbEntity
  8
Visible (ISO)
100
AcDbLine
 10
1517.965123906613
 20
1905.086585557067
 30
0.0
 11
1477.965123906613
 21
1905.086585557067
 31
0.0
  0
LINE
  5
42E
330
1A
100
AcDbEntity
  8
Visible Narrow (ISO)
100
AcDbLine
 10
1477.965123906613
 20
1905.086585557067
 30
0.0
 11
1477.965123906613
 21
1900.086585557067
 31
0.0
  0
LINE
  5
42F
330
1A
100
AcDbEntity
  8
Visible Narrow (ISO)
100
AcDbLine
 10
1467.965123906613
 20
1895.086585557067
 30
0.0
 11
1472.965123906613
 21
1895.086585557067
 31
0.0
  0
LINE
  5
430
330
1A
100
AcDbEntity
  8
Visible (ISO)
100
AcDbLine
 10
1467.965123906613
 20
1895.086585557067
 30
0.0
 11
1467.965123906613
 21
1875.086585557067
 31
0.0
  0
LINE
  5
431
330
1A
100
AcDbEntity
  8
Visible (ISO)
100
AcDbLine
 10
1477.965123906613
 20
1900.086585557067
 30
0.0
 11
1517.965123906613
 21
1900.086585557067
 31
0.0
  0
LINE
  5
432
330
1A
100
AcDbEntity
  8
Visible (ISO)
100
AcDbLine
 10
1472.965123906613
 20
1875.086585557067
 30
0.0
 11
1467.965123906613
 21
1875.086585557067
 31
0.0
  0
LINE
  5
433
330
1A
100
AcDbEntity
  8
Visible (ISO)
100
AcDbLine
 10
1472.965123906613
 20
1875.086585557067
 30
0.0
 11
1472.965123906613
 21
1895.086585557067
 31
0.0
  0
LINE
  5
434
330
1A
100
AcDbEntity
  8
Hidden (ISO)
100
AcDbLine
 10
1472.965123906562
 20
1879.586585557067
 30
0.0
 11
1467.965123906562
 21
1879.586585557067
 31
0.0
  0
LINE
  5
435
330
1A
100
AcDbEntity
  8
Hidden (ISO)
100
AcDbLine
 10
1472.965123906562
 20
1886.586585557067
 30
0.0
 11
1467.965123906562
 21
1886.586585557067
 31
0.0
  0
LINE
  5
436
330
1A
100
AcDbEntity
  8
Visible (ISO)
100
AcDbLine
 10
1467.965123906608
 20
1695.086585557068
 30
0.0
 11
1467.965123906608
 21
1875.086585557067
 31
0.0
  0
LINE
  5
437
330
1A
100
AcDbEntity
  8
Visible (ISO)
100
AcDbLine
 10
1496.790123906607
 20
1900.086585557067
 30
0.0
 11
1497.930641147986
 21
1899.000378660516
 31
0.0
  0
LINE
  5
438
330
1A
100
AcDbEntity
  8
Hidden (ISO)
100
AcDbLine
 10
1517.999606665229
 20
1879.887078167906
 30
0.0
 11
1518.465123906606
 21
1879.44372841421
 31
0.0
  0
LINE
  5
439
330
1A
100
AcDbEntity
  8
Hidden (ISO)
100
AcDbLine
 10
1518.465123906606
 20
1879.44372841421
 30
0.0
 11
1518.465123906606
 21
1878.800871271353
 31
0.0
  0
LINE
  5
43A
330
1A
100
AcDbEntity
  8
Hidden (ISO)
100
AcDbLine
 10
1518.465123906606
 20
1678.086585557067
 30
0.0
 11
1518.465123906608
 21
1676.586585557068
 31
0.0
  0
LINE
  5
43B
330
1A
100
AcDbEntity
  8
Hidden (ISO)
100
AcDbLine
 10
1518.465123906608
 20
1676.586585557068
 30
0.0
 11
1516.965123906608
 21
1676.586585557068
 31
0.0
  0
LINE
  5
43C
330
1A
100
AcDbEntity
  8
Hidden (ISO)
100
AcDbLine
 10
1470.965123906608
 20
1676.586585557068
 30
0.0
 11
1469.465123906608
 21
1676.586585557068
 31
0.0
  0
LINE
  5
43D
330
1A
100
AcDbEntity
  8
Hidden (ISO)
100
AcDbLine
 10
1469.465123906608
 20
1676.586585557068
 30
0.0
 11
1469.465123906608
 21
1678.086585557067
 31
0.0
  0
LINE
  5
43E
330
1A
100
AcDbEntity
  8
Hidden (ISO)
100
AcDbLine
 10
1472.965123906608
 20
1895.086585557067
 30
0.0
 11
1472.965123906608
 21
1900.086585557067
 31
0.0
  0
LINE
  5
43F
330
1A
100
AcDbEntity
  8
Hidden (ISO)
100
AcDbLine
 10
1472.965123906608
 20
1900.086585557067
 30
0.0
 11
1477.965123906608
 21
1900.086585557067
 31
0.0
  0
LINE
  5
440
330
1A
100
AcDbEntity
  8
Hidden Narrow (ISO)
100
AcDbLine
 10
1823.646572009156
 20
1529.375414817627
 30
0.0
 11
1653.646572009156
 21
1529.375414817577
 31
0.0
  0
LINE
  5
441
330
1A
100
AcDbEntity
  8
Hidden (ISO)
100
AcDbLine
 10
1823.646572009156
 20
1530.306449300387
 30
0.0
 11
1653.646572009156
 21
1530.306449300335
 31
0.0
  0
LINE
  5
442
330
1A
100
AcDbEntity
  8
Hidden Narrow (ISO)
100
AcDbLine
 10
1653.646572009158
 20
1528.340932058957
 30
0.0
 11
1823.646572009158
 21
1528.340932059007
 31
0.0
  0
LINE
  5
443
330
1A
100
AcDbEntity
  8
Hidden (ISO)
100
AcDbLine
 10
1653.646572009156
 20
1528.806449300335
 30
0.0
 11
1663.646572009156
 21
1528.806449300338
 31
0.0
  0
LINE
  5
444
330
1A
100
AcDbEntity
  8
Hidden (ISO)
100
AcDbLine
 10
1813.646572009156
 20
1528.806449300384
 30
0.0
 11
1823.646572009156
 21
1528.806449300387
 31
0.0
  0
LINE
  5
445
330
1A
100
AcDbEntity
  8
Hidden Narrow (ISO)
100
AcDbLine
 10
1653.646572009158
 20
1527.306449300277
 30
0.0
 11
1823.646572009158
 21
1527.306449300327
 31
0.0
  0
LINE
  5
446
330
1A
100
AcDbEntity
  8
Hidden Narrow (ISO)
100
AcDbLine
 10
1653.646572009171
 20
1481.306449300276
 30
0.0
 11
1823.646572009171
 21
1481.306449300327
 31
0.0
  0
LINE
  5
447
330
1A
100
AcDbEntity
  8
Hidden (ISO)
100
AcDbLine
 10
1653.646572009163
 20
1508.271966541719
 30
0.0
 11
1823.646572009163
 21
1508.271966541771
 31
0.0
  0
LINE
  5
448
330
1A
100
AcDbEntity
  8
Hidden (ISO)
100
AcDbLine
 10
1653.646572009163
 20
1509.30644930034
 30
0.0
 11
1823.646572009163
 21
1509.306449300392
 31
0.0
  0
LINE
  5
449
330
1A
100
AcDbEntity
  8
Hidden (ISO)
100
AcDbLine
 10
1823.646572009171
 20
1479.806449300333
 30
0.0
 11
1653.646572009171
 21
1479.806449300281
 31
0.0
  0
LINE
  5
44A
330
1A
100
AcDbEntity
  8
Hidden (ISO)
100
AcDbLine
 10
1742.646572009171
 20
1479.806449300307
 30
0.0
 11
1742.646572009173
 21
1478.306449300307
 31
0.0
  0
LINE
  5
44B
330
1A
100
AcDbEntity
  8
Hidden (ISO)
100
AcDbLine
 10
1734.646572009171
 20
1479.806449300303
 30
0.0
 11
1734.646572009173
 21
1478.306449300303
 31
0.0
  0
LINE
  5
44C
330
1A
100
AcDbEntity
  8
Visible (ISO)
100
AcDbLine
 10
1653.646572009154
 20
1538.306449300353
 30
0.0
 11
1653.646572009156
 21
1533.306449300352
 31
0.0
  0
LINE
  5
44D
330
1A
100
AcDbEntity
  8
Visible (ISO)
100
AcDbLine
 10
1653.646572009156
 20
1533.306449300352
 30
0.0
 11
1823.646572009156
 21
1533.306449300403
 31
0.0
  0
LINE
  5
44E
330
1A
100
AcDbEntity
  8
Visible (ISO)
100
AcDbLine
 10
1823.646572009154
 20
1538.306449300402
 30
0.0
 11
1823.646572009156
 21
1533.306449300403
 31
0.0
  0
LINE
  5
44F
330
1A
100
AcDbEntity
  8
Visible (ISO)
100
AcDbLine
 10
1653.646572009169
 20
1488.306449300345
 30
0.0
 11
1653.646572009158
 21
1528.306449300345
 31
0.0
  0
LINE
  5
450
330
1A
100
AcDbEntity
  8
Visible (ISO)
100
AcDbLine
 10
1823.646572009158
 20
1528.306449300395
 30
0.0
 11
1823.646572009169
 21
1488.306449300395
 31
0.0
  0
LINE
  5
451
330
1A
100
AcDbEntity
  8
Visible (ISO)
100
AcDbLine
 10
1653.646572009154
 20
1538.306449300353
 30
0.0
 11
1823.646572009154
 21
1538.306449300402
 31
0.0
  0
LINE
  5
452
330
1A
100
AcDbEntity
  8
Visible (ISO)
100
AcDbLine
 10
1823.646572009156
 20
1533.306449300395
 30
0.0
 11
1823.646572009158
 21
1528.306449300395
 31
0.0
  0
LINE
  5
453
330
1A
100
AcDbEntity
  8
Visible Narrow (ISO)
100
AcDbLine
 10
1653.646572009158
 20
1528.306449300345
 30
0.0
 11
1823.646572009158
 21
1528.306449300395
 31
0.0
  0
LINE
  5
454
330
1A
100
AcDbEntity
  8
Visible Narrow (ISO)
100
AcDbLine
 10
1653.646572009169
 20
1488.306449300345
 30
0.0
 11
1823.646572009169
 21
1488.306449300395
 31
0.0
  0
LINE
  5
455
330
1A
100
AcDbEntity
  8
Visible (ISO)
100
AcDbLine
 10
1653.646572009158
 20
1528.306449300345
 30
0.0
 11
1653.646572009156
 21
1533.306449300345
 31
0.0
  0
LINE
  5
456
330
1A
100
AcDbEntity
  8
Visible (ISO)
100
AcDbLine
 10
1823.646572009173
 20
1478.306449300391
 30
0.0
 11
1823.646572009169
 21
1488.306449300395
 31
0.0
  0
LINE
  5
457
330
1A
100
AcDbEntity
  8
Visible (ISO)
100
AcDbLine
 10
1653.646572009173
 20
1478.306449300341
 30
0.0
 11
1823.646572009173
 21
1478.306449300391
 31
0.0
  0
LINE
  5
458
330
1A
100
AcDbEntity
  8
Visible (ISO)
100
AcDbLine
 10
1653.646572009169
 20
1488.306449300345
 30
0.0
 11
1653.646572009173
 21
1478.306449300341
 31
0.0
  0
LINE
  5
459
330
1A
100
AcDbEntity
  8
Hidden (ISO)
100
AcDbLine
 10
1823.646572009171
 20
1483.306449300391
 30
0.0
 11
1813.646572009171
 21
1483.306449300388
 31
0.0
  0
LINE
  5
45A
330
1A
100
AcDbEntity
  8
Hidden (ISO)
100
AcDbLine
 10
1663.646572009171
 20
1483.306449300345
 30
0.0
 11
1653.646572009171
 21
1483.306449300341
 31
0.0
  0
LINE
  5
45B
330
1A
100
AcDbEntity
  8
Hidden (ISO)
100
AcDbLine
 10
1742.146572009171
 20
1483.306449300364
 30
0.0
 11
1742.146572009173
 21
1478.306449300363
 31
0.0
  0
LINE
  5
45C
330
1A
100
AcDbEntity
  8
Hidden (ISO)
100
AcDbLine
 10
1735.146572009171
 20
1483.306449300362
 30
0.0
 11
1735.146572009172
 21
1478.306449300362
 31
0.0
  0
LINE
  5
45D
330
1A
100
AcDbEntity
  8
Hidden (ISO)
100
AcDbLine
 10
1663.646572009171
 20
1479.806449300285
 30
0.0
 11
1813.646572009171
 21
1479.806449300329
 31
0.0
  0
LINE
  5
45E
330
1A
100
AcDbEntity
  8
Hidden (ISO)
100
AcDbLine
 10
1813.646572009172
 20
1478.306449300383
 30
0.0
 11
1813.646572009171
 21
1483.306449300384
 31
0.0
  0
LINE
  5
45F
330
1A
100
AcDbEntity
  8
Hidden (ISO)
100
AcDbLine
 10
1663.646572009171
 20
1483.306449300338
 30
0.0
 11
1663.646572009173
 21
1478.306449300338
 31
0.0
  0
LINE
  5
460
330
1A
100
AcDbEntity
  8
Hidden (ISO)
100
AcDbLine
 10
1813.646572009164
 20
1507.131449300388
 30
0.0
 11
1813.646572009156
 21
1528.806449300384
 31
0.0
  0
LINE
  5
461
330
1A
100
AcDbEntity
  8
Hidden (ISO)
100
AcDbLine
 10
1663.646572009156
 20
1528.806449300338
 30
0.0
 11
1813.646572009156
 21
1528.806449300384
 31
0.0
  0
LINE
  5
462
330
1A
100
AcDbEntity
  8
Hidden (ISO)
100
AcDbLine
 10
1663.646572009156
 20
1528.806449300338
 30
0.0
 11
1663.646572009164
 21
1507.131449300344
 31
0.0
  0
LINE
  5
463
330
1A
100
AcDbEntity
  8
Hidden (ISO)
100
AcDbLine
 10
1663.646572009164
 20
1507.131449300344
 30
0.0
 11
1813.646572009164
 21
1507.131449300388
 31
0.0
  0
LINE
  5
464
330
1A
100
AcDbEntity
  8
Hidden (ISO)
100
AcDbLine
 10
1663.646572009164
 20
1507.131449300344
 30
0.0
 11
1663.646572009171
 21
1483.306449300345
 31
0.0
  0
LINE
  5
465
330
1A
100
AcDbEntity
  8
Hidden (ISO)
100
AcDbLine
 10
1663.646572009171
 20
1483.306449300345
 30
0.0
 11
1813.646572009171
 21
1483.30644930039
 31
0.0
  0
LINE
  5
466
330
1A
100
AcDbEntity
  8
Hidden (ISO)
100
AcDbLine
 10
1813.646572009171
 20
1483.30644930039
 30
0.0
 11
1813.646572009164
 21
1507.131449300388
 31
0.0
  0
LINE
  5
467
330
1A
100
AcDbEntity
  8
Hidden Narrow (ISO)
100
AcDbLine
 10
1823.646572009318
 20
2073.559216387887
 30
0.0
 11
1653.646572009318
 21
2073.559216387938
 31
0.0
  0
LINE
  5
468
330
1A
100
AcDbEntity
  8
Hidden Narrow (ISO)
100
AcDbLine
 10
1653.646572009318
 20
2074.593699146557
 30
0.0
 11
1823.646572009318
 21
2074.593699146507
 31
0.0
  0
LINE
  5
469
330
1A
100
AcDbEntity
  8
Hidden (ISO)
100
AcDbLine
 10
1653.646572009318
 20
2074.128181905118
 30
0.0
 11
1663.646572009318
 21
2074.128181905114
 31
0.0
  0
LINE
  5
46A
330
1A
100
AcDbEntity
  8
Hidden (ISO)
100
AcDbLine
 10
1813.646572009318
 20
2074.12818190507
 30
0.0
 11
1823.646572009318
 21
2074.128181905067
 31
0.0
  0
LINE
  5
46B
330
1A
100
AcDbEntity
  8
Hidden (ISO)
100
AcDbLine
 10
1653.646572009333
 20
2123.128181905117
 30
0.0
 11
1663.646572009333
 21
2123.128181905113
 31
0.0
  0
LINE
  5
46C
330
1A
100
AcDbEntity
  8
Hidden (ISO)
100
AcDbLine
 10
1813.646572009333
 20
2123.12818190507
 30
0.0
 11
1823.646572009333
 21
2123.128181905068
 31
0.0
  0
LINE
  5
46D
330
1A
100
AcDbEntity
  8
Visible (ISO)
100
AcDbLine
 10
1823.646572009318
 20
2072.628181905067
 30
0.0
 11
1653.646572009318
 21
2072.628181905117
 31
0.0
  0
LINE
  5
46E
330
1A
100
AcDbEntity
  8
Visible (ISO)
100
AcDbLine
 10
1823.646572009318
 20
2072.628181905067
 30
0.0
 11
1823.646572009318
 21
2075.628181905067
 31
0.0
  0
LINE
  5
46F
330
1A
100
AcDbEntity
  8
Visible Narrow (ISO)
100
AcDbLine
 10
1823.646572009318
 20
2075.628181905067
 30
0.0
 11
1653.646572009318
 21
2075.628181905116
 31
0.0
  0
LINE
  5
470
330
1A
100
AcDbEntity
  8
Visible (ISO)
100
AcDbLine
 10
1653.646572009318
 20
2072.628181905117
 30
0.0
 11
1653.646572009318
 21
2075.628181905116
 31
0.0
  0
LINE
  5
471
330
1A
100
AcDbEntity
  8
Visible Narrow (ISO)
100
AcDbLine
 10
1823.646572009333
 20
2121.628181905066
 30
0.0
 11
1653.646572009333
 21
2121.628181905116
 31
0.0
  0
LINE
  5
472
330
1A
100
AcDbEntity
  8
Visible (ISO)
100
AcDbLine
 10
1823.646572009333
 20
2121.628181905066
 30
0.0
 11
1823.646572009333
 21
2124.628181905067
 31
0.0
  0
LINE
  5
473
330
1A
100
AcDbEntity
  8
Visible (ISO)
100
AcDbLine
 10
1823.646572009333
 20
2124.628181905067
 30
0.0
 11
1653.646572009333
 21
2124.628181905118
 31
0.0
  0
LINE
  5
474
330
1A
100
AcDbEntity
  8
Visible (ISO)
100
AcDbLine
 10
1653.646572009333
 20
2121.628181905116
 30
0.0
 11
1653.646572009333
 21
2124.628181905118
 31
0.0
  0
LINE
  5
475
330
1A
100
AcDbEntity
  8
Hidden (ISO)
100
AcDbLine
 10
1653.646572009324
 20
2094.662664663805
 30
0.0
 11
1823.646572009323
 21
2094.662664663754
 31
0.0
  0
LINE
  5
476
330
1A
100
AcDbEntity
  8
Hidden (ISO)
100
AcDbLine
 10
1653.646572009324
 20
2093.628181905184
 30
0.0
 11
1823.646572009323
 21
2093.628181905134
 31
0.0
  0
LINE
  5
477
330
1A
100
AcDbEntity
  8
Visible (ISO)
100
AcDbLine
 10
1653.646572009333
 20
2121.628181905116
 30
0.0
 11
1653.646572009318
 21
2075.628181905116
 31
0.0
  0
LINE
  5
478
330
1A
100
AcDbEntity
  8
Visible (ISO)
100
AcDbLine
 10
1823.646572009333
 20
2121.628181905066
 30
0.0
 11
1823.646572009318
 21
2075.628181905067
 31
0.0
  0
LINE
  5
479
330
1A
100
AcDbEntity
  8
Hidden (ISO)
100
AcDbLine
 10
1734.646572009333
 20
2123.128181905096
 30
0.0
 11
1734.646572009333
 21
2124.628181905096
 31
0.0
  0
LINE
  5
47A
330
1A
100
AcDbEntity
  8
Hidden (ISO)
100
AcDbLine
 10
1742.646572009333
 20
2123.128181905094
 30
0.0
 11
1742.646572009333
 21
2124.628181905094
 31
0.0
  0
LINE
  5
47B
330
1A
100
AcDbEntity
  8
Visible (ISO)
100
AcDbLine
 10
1823.646572009314
 20
2064.628181905137
 30
0.0
 11
1653.646572009314
 21
2064.628181905186
 31
0.0
  0
LINE
  5
47C
330
1A
100
AcDbEntity
  8
Visible (ISO)
100
AcDbLine
 10
1823.646572009314
 20
2064.628181905137
 30
0.0
 11
1823.646572009318
 21
2072.628181905134
 31
0.0
  0
LINE
  5
47D
330
1A
100
AcDbEntity
  8
Visible (ISO)
100
AcDbLine
 10
1653.646572009314
 20
2064.628181905186
 30
0.0
 11
1653.646572009318
 21
2072.628181905185
 31
0.0
  0
LINE
  5
47E
330
1A
100
AcDbEntity
  8
Hidden Narrow (ISO)
100
AcDbLine
 10
1823.646572009318
 20
2074.628181905134
 30
0.0
 11
1653.646572009318
 21
2074.628181905184
 31
0.0
  0
LINE
  5
47F
330
1A
100
AcDbEntity
  8
Hidden (ISO)
100
AcDbLine
 10
1653.646572009316
 20
2069.628181905187
 30
0.0
 11
1823.646572009316
 21
2069.628181905136
 31
0.0
  0
LINE
  5
480
330
1A
100
AcDbEntity
  8
Hidden Narrow (ISO)
100
AcDbLine
 10
1823.646572009331
 20
2114.628181905134
 30
0.0
 11
1653.646572009331
 21
2114.628181905183
 31
0.0
  0
LINE
  5
481
330
1A
100
AcDbEntity
  8
Hidden (ISO)
100
AcDbLine
 10
1653.646572009331
 20
2119.628181905177
 30
0.0
 11
1823.646572009331
 21
2119.628181905126
 31
0.0
  0
LINE
  5
482
330
1A
100
AcDbEntity
  8
Hidden (ISO)
100
AcDbLine
 10
1735.146572009331
 20
2119.628181905155
 30
0.0
 11
1735.146572009333
 21
2124.628181905153
 31
0.0
  0
LINE
  5
483
330
1A
100
AcDbEntity
  8
Hidden (ISO)
100
AcDbLine
 10
1742.146572009331
 20
2119.628181905152
 30
0.0
 11
1742.146572009333
 21
2124.628181905152
 31
0.0
  0
LINE
  5
484
330
1A
100
AcDbEntity
  8
Hidden (ISO)
100
AcDbLine
 10
1813.646572009333
 20
2123.128181905076
 30
0.0
 11
1813.646572009333
 21
2124.628181905075
 31
0.0
  0
LINE
  5
485
330
1A
100
AcDbEntity
  8
Hidden (ISO)
100
AcDbLine
 10
1663.646572009333
 20
2124.628181905119
 30
0.0
 11
1663.646572009333
 21
2123.128181905119
 31
0.0
  0
LINE
  5
486
330
1A
100
AcDbEntity
  8
Hidden (ISO)
100
AcDbLine
 10
1663.646572009331
 20
2119.628181905173
 30
0.0
 11
1813.646572009331
 21
2119.628181905129
 31
0.0
  0
LINE
  5
487
330
1A
100
AcDbEntity
  8
Hidden (ISO)
100
AcDbLine
 10
1663.646572009325
 20
2095.803181905182
 30
0.0
 11
1813.646572009325
 21
2095.803181905136
 31
0.0
  0
LINE
  5
488
330
1A
100
AcDbEntity
  8
Hidden (ISO)
100
AcDbLine
 10
1663.646572009318
 20
2074.128181905114
 30
0.0
 11
1813.646572009318
 21
2074.128181905069
 31
0.0
  0
LINE
  5
489
330
1A
100
AcDbEntity
  8
Hidden (ISO)
100
AcDbLine
 10
1813.646572009318
 20
2074.128181905069
 30
0.0
 11
1813.646572009333
 21
2123.12818190507
 31
0.0
  0
LINE
  5
48A
330
1A
100
AcDbEntity
  8
Hidden (ISO)
100
AcDbLine
 10
1663.646572009333
 20
2123.128181905113
 30
0.0
 11
1813.646572009333
 21
2123.12818190507
 31
0.0
  0
LINE
  5
48B
330
1A
100
AcDbEntity
  8
Hidden (ISO)
100
AcDbLine
 10
1663.646572009333
 20
2123.128181905113
 30
0.0
 11
1663.646572009318
 21
2074.128181905114
 31
0.0
  0
MTEXT
  5
48C
330
1A
100
AcDbEntity
  8
0
100
AcDbMText
 10
1530.33927027462
 20
1378.014788656236
 30
0.0
 40
25.0
 41
782.3471997944233
 71
     1
 72
     5
  1
MONTAJE CMA-01 CON POREX
 73
     1
 44
1.0
1001
ACAD
1000
ACAD_MTEXT_COLUMN_INFO_BEGIN
1070
    75
1070
     2
1070
    79
1070
     0
1070
    76
1070
     1
1070
    78
1070
     0
1070
    48
1040
782.3471997944233
1070
    49
1040
84.1750841750842
1070
    50
1070
     1
1040
0.0
1000
ACAD_MTEXT_COLUMN_INFO_END
1000
MTEXTBEGIN
1070
    73
1070
     1
1070
    44
1040
1.0
1070
    74
1070
     0
1000
MTEXTEND
  0
LINE
  5
48D
330
1A
100
AcDbEntity
  8
0
100
AcDbLine
 10
2367.369263071433
 20
1320.860152160999
 30
0.0
 11
805.2743274870953
 21
1320.860152160999
 31
0.0
  0
VIEWPORT
  5
22
102
{ACAD_XDICTIONARY
360
4AD
102
}
330
17
100
AcDbEntity
 67
     1
  8
0
100
AcDbViewport
 10
144.6424255371093
 20
100.7639141082763
 30
0.0
 40
346.4348652353054
 41
222.1517806396485
 68
     1
 69
     1
 12
144.6424255371093
 22
100.7639141082763
 13
0.0
 23
0.0
 14
10.0
 24
10.0
 15
10.0
 25
10.0
 16
0.0
 26
0.0
 36
1.0
 17
0.0
 27
0.0
 37
0.0
 42
50.0
 43
0.0
 44
0.0
 45
222.1517806396485
 50
0.0
 51
0.0
 72
   100
 90
    32800
  1

281
     0
 71
     1
 74
     0
110
0.0
120
0.0
130
0.0
111
1.0
121
0.0
131
0.0
112
0.0
122
1.0
132
0.0
 79
     0
146
0.0
  0
VIEWPORT
  5
A1
102
{ACAD_XDICTIONARY
360
4B3
102
}
330
17
100
AcDbEntity
 67
     1
  8
0
100
AcDbViewport
 10
139.8164286613464
 20
100.7850790023803
 30
0.0
 40
223.7062858581543
 41
161.2561264038086
 68
     2
 69
     2
 12
1000.0
 22
1000.0
 13
0.0
 23
0.0
 14
67.0
 24
67.0
 15
67.0
 25
67.0
 16
0.0
 26
0.0
 36
1.0
 17
0.0
 27
0.0
 37
0.0
 42
50.0
 43
0.0
 44
0.0
 45
2025.263157894737
 50
0.0
 51
0.0
 72
   100
 90
    33312
  1

281
     0
 71
     1
 74
     0
110
0.0
120
0.0
130
0.0
111
1.0
121
0.0
131
0.0
112
0.0
122
1.0
132
0.0
 79
     0
146
0.0
  0
ENDSEC
  0
SECTION
  2
OBJECTS
  0
DICTIONARY
  5
C
330
0
100
AcDbDictionary
281
     1
  3
ACAD_COLOR
350
1C4
  3
ACAD_GROUP
350
D
  3
ACAD_LAYOUT
350
91
  3
ACAD_MATERIAL
350
197
  3
ACAD_MLEADERSTYLE
350
1D9
  3
ACAD_MLINESTYLE
350
E
  3
ACAD_PLOTSETTINGS
350
92
  3
ACAD_PLOTSTYLENAME
350
8F
  3
ACAD_SCALELIST
350
1C7
  3
ACAD_TABLESTYLE
350
1C5
  3
ACAD_VISUALSTYLE
350
1B0
  3
ACDB_RECOMPOSE_DATA
350
4AB
  3
ACDBVARIABLEDICTIONARY
350
5D
  3
DWGPROPS
350
4AC
  0
DICTIONARY
  5
22C
330
2
100
AcDbDictionary
280
     1
281
     1
  3
ACAD_LAYERSTATES
360
22D
  0
DICTIONARY
  5
48E
330
F
100
AcDbDictionary
280
     1
281
     1
  3
ADSK_XREC_LAYER_RECONCILED
360
48F
  0
DICTIONARY
  5
490
330
83
100
AcDbDictionary
280
     1
281
     1
  3
ADSK_XREC_LAYER_RECONCILED
360
491
  0
DICTIONARY
  5
492
330
84
100
AcDbDictionary
280
     1
281
     1
  3
ADSK_XREC_LAYER_RECONCILED
360
493
  0
DICTIONARY
  5
494
330
85
100
AcDbDictionary
280
     1
281
     1
  3
ADSK_XREC_LAYER_RECONCILED
360
495
  0
DICTIONARY
  5
496
330
86
100
AcDbDictionary
280
     1
281
     1
  3
ADSK_XREC_LAYER_RECONCILED
360
497
  0
DICTIONARY
  5
498
330
98
100
AcDbDictionary
280
     1
281
     1
  3
ADSK_XREC_LAYER_RECONCILED
360
499
  0
DICTIONARY
  5
224
330
223
100
AcDbDictionary
280
     1
281
     1
  3
ADSK_XREC_LAYER_RECONCILED
360
49A
  0
DICTIONARY
  5
226
330
225
100
AcDbDictionary
280
     1
281
     1
  3
ADSK_XREC_LAYER_RECONCILED
360
49B
  0
DICTIONARY
  5
228
330
227
100
AcDbDictionary
280
     1
281
     1
  3
ADSK_XREC_LAYER_RECONCILED
360
49C
  0
DICTIONARY
  5
22A
330
229
100
AcDbDictionary
280
     1
281
     1
  3
ADSK_XREC_LAYER_RECONCILED
360
49D
  0
DICTIONARY
  5
49E
330
22B
100
AcDbDictionary
280
     1
281
     1
  3
ADSK_XREC_LAYER_RECONCILED
360
49F
  0
DICTIONARY
  5
4A9
330
3B8
100
AcDbDictionary
280
     1
281
     1
  3
ACAD_MTEXT_2008_RT
360
4AA
  3
ACAD_MTEXT_RT
360
4E1
  0
DICTIONARY
  5
4AD
330
22
100
AcDbDictionary
280
     1
281
     1
  3
ACAD_XREC_ROUNDTRIP
360
4AE
  0
DICTIONARY
  5
4B3
330
A1
100
AcDbDictionary
280
     1
281
     1
  3
ACAD_XREC_ROUNDTRIP
360
4B4
  0
DICTIONARY
  5
1C4
102
{ACAD_REACTORS
330
C
102
}
330
C
100
AcDbDictionary
281
     1
  0
DICTIONARY
  5
D
102
{ACAD_REACTORS
330
C
102
}
330
C
100
AcDbDictionary
281
     1
  0
DICTIONARY
  5
91
102
{ACAD_REACTORS
330
C
102
}
330
C
100
AcDbDictionary
281
     1
  3
Layout1
350
94
  3
Model
350
93
  0
DICTIONARY
  5
197
102
{ACAD_REACTORS
330
C
102
}
330
C
100
AcDbDictionary
281
     1
  3
ByBlock
350
1A0
  3
ByLayer
350
198
  3
Global
350
1A8
  0
DICTIONARY
  5
1D9
102
{ACAD_REACTORS
330
C
102
}
330
C
100
AcDbDictionary
281
     1
  3
Opisowy
350
21E
  3
Standard
350
1DA
  0
DICTIONARY
  5
E
102
{ACAD_REACTORS
330
C
102
}
330
C
100
AcDbDictionary
281
     1
  3
STANDARD
350
13
  0
DICTIONARY
  5
92
102
{ACAD_REACTORS
330
C
102
}
330
C
100
AcDbDictionary
281
     1
  0
ACDBDICTIONARYWDFLT
  5
8F
102
{ACAD_REACTORS
330
C
102
}
330
C
100
AcDbDictionary
281
     1
  3
Normal
350
90
100
AcDbDictionaryWithDefault
340
90
  0
DICTIONARY
  5
1C7
102
{ACAD_REACTORS
330
C
102
}
330
C
100
AcDbDictionary
281
     1
  3
A0
350
1C8
  3
A1
350
1C9
  3
A2
350
1CA
  3
A3
350
1CB
  3
A4
350
1CC
  3
A5
350
1CD
  3
A6
350
1CE
  3
A7
350
1CF
  3
A8
350
1D0
  3
A9
350
1D1
  3
B0
350
1D2
  3
B1
350
1D3
  3
B2
350
1D4
  3
B3
350
1D5
  3
B4
350
1D6
  3
B5
350
1D7
  3
B6
350
1D8
  0
DICTIONARY
  5
1C5
102
{ACAD_REACTORS
330
C
102
}
330
C
100
AcDbDictionary
281
     1
  3
Standard
350
1C6
  0
DICTIONARY
  5
1B0
102
{ACAD_REACTORS
330
C
102
}
330
C
100
AcDbDictionary
281
     1
  3
2dWireframe
350
1B6
  3
3D Hidden
350
1B8
  3
3dWireframe
350
1B7
  3
Basic
350
1B5
  3
Brighten
350
1BC
  3
ColorChange
350
1C0
  3
Conceptual
350
1B9
  3
Dim
350
1BB
  3
EdgeColorOff
350
1C3
  3
Facepattern
350
1BF
  3
Flat
350
1B1
  3
FlatWithEdges
350
1B2
  3
Gouraud
350
1B3
  3
GouraudWithEdges
350
1B4
  3
JitterOff
350
1C1
  3
Linepattern
350
1BE
  3
OverhangOff
350
1C2
  3
Realistic
350
1BA
  3
Thicken
350
1BD
  0
XRECORD
  5
4AB
102
{ACAD_REACTORS
330
C
102
}
330
C
100
AcDbXrecord
280
     1
 90
        1
330
1C6
330
368
330
369
330
36A
330
36B
330
3B8
330
48C
  0
DICTIONARY
  5
5D
102
{ACAD_REACTORS
330
C
102
}
330
C
100
AcDbDictionary
281
     1
  3
CANNOSCALE
350
4A2
  3
CMLEADERSTYLE
350
4A1
  3
CTABLESTYLE
350
4A0
  3
DIMADEC
350
5E
  3
DIMASSOC
350
4A5
  3
INDEXCTL
350
4A4
  3
SORTENTS
350
4A3
  3
XCLIPFRAME
350
4A6
  0
XRECORD
  5
4AC
102
{ACAD_REACTORS
330
C
102
}
330
C
100
AcDbXrecord
280
     1
  1
DWGPROPS COOKIE
  2

  3

  4

  6

  7

  8
estacio cad1
  9

300
=
301
=
302
=
303
=
304
=
305
=
306
=
307
=
308
=
309
=
 40
0.0002383564814815
 41
2459411.713561609
 42
2459411.713799792
  1

 90
        0
  0
DICTIONARY
  5
22D
102
{ACAD_REACTORS
330
22C
102
}
330
22C
100
AcDbDictionary
281
     1
  0
XRECORD
  5
48F
102
{ACAD_REACTORS
330
48E
102
}
330
48E
100
AcDbXrecord
280
     1
290
     1
  0
XRECORD
  5
491
102
{ACAD_REACTORS
330
490
102
}
330
490
100
AcDbXrecord
280
     1
290
     1
  0
XRECORD
  5
493
102
{ACAD_REACTORS
330
492
102
}
330
492
100
AcDbXrecord
280
     1
290
     1
  0
XRECORD
  5
495
102
{ACAD_REACTORS
330
494
102
}
330
494
100
AcDbXrecord
280
     1
290
     1
  0
XRECORD
  5
497
102
{ACAD_REACTORS
330
496
102
}
330
496
100
AcDbXrecord
280
     1
290
     1
  0
XRECORD
  5
499
102
{ACAD_REACTORS
330
498
102
}
330
498
100
AcDbXrecord
280
     1
290
     1
  0
XRECORD
  5
49A
102
{ACAD_REACTORS
330
224
102
}
330
224
100
AcDbXrecord
280
     1
290
     1
  0
XRECORD
  5
49B
102
{ACAD_REACTORS
330
226
102
}
330
226
100
AcDbXrecord
280
     1
290
     1
  0
XRECORD
  5
49C
102
{ACAD_REACTORS
330
228
102
}
330
228
100
AcDbXrecord
280
     1
290
     1
  0
XRECORD
  5
49D
102
{ACAD_REACTORS
330
22A
102
}
330
22A
100
AcDbXrecord
280
     1
290
     1
  0
XRECORD
  5
49F
102
{ACAD_REACTORS
330
49E
102
}
330
49E
100
AcDbXrecord
280
     1
290
     1
  0
XRECORD
  5
4AA
102
{ACAD_REACTORS
330
4A9
102
}
330
4A9
100
AcDbXrecord
280
     1
 40
87700.0
  1
\pxqc;{\fArial|b0|i0|c0|p34;REGISTROS CMA}
  0
XRECORD
  5
4E1
102
{ACAD_REACTORS
330
4A9
102
}
330
4A9
100
AcDbXrecord
280
     1
 40
93762.0
  1
\pi136.72;{\fArial|b0|i0|c0|p34;REGISTROS CMA}
  0
XRECORD
  5
4AE
102
{ACAD_REACTORS
330
4AD
102
}
330
4AD
100
AcDbXrecord
280
     1
102
SHADEPLOT
 70
     0
  0
XRECORD
  5
4B4
102
{ACAD_REACTORS
330
4B3
102
}
330
4B3
100
AcDbXrecord
280
     1
102
SHADEPLOT
 70
     0
  0
LAYOUT
  5
94
102
{ACAD_XDICTIONARY
360
4B1
102
}
102
{ACAD_REACTORS
330
91
102
}
330
91
100
AcDbPlotSettings
  1

  2
HP Color Inkjet CP1700 DIN-A4.pc3
  4
A4
  6

 40
4.222749710083007
 41
13.49372959136963
 42
4.180419921875
 43
3.84173583984375
 44
209.9733276367187
 45
296.9683227539062
 46
0.0
 47
0.0
 48
0.0
 49
0.0
140
0.0
141
0.0
142
1.0
143
1.0
 70
   688
 72
     1
 73
     1
 74
     5
  7

 75
    16
147
1.0
148
0.0
149
0.0
100
AcDbLayout
  1
Layout1
 70
     1
 71
     1
 10
-3.84173583984375
 20
-4.222749710083007
 11
293.1265869140625
 21
205.7505779266358
 12
0.0
 22
0.0
 32
0.0
 14
27.9632857322693
 24
20.15701580047608
 34
0.0
 15
251.6695715904236
 25
181.4131422042846
 35
0.0
146
0.0
 13
0.0
 23
0.0
 33
0.0
 16
1.0
 26
0.0
 36
0.0
 17
0.0
 27
1.0
 37
0.0
 76
     0
330
17
331
22
  0
LAYOUT
  5
93
102
{ACAD_XDICTIONARY
360
4AF
102
}
102
{ACAD_REACTORS
330
91
102
}
330
91
100
AcDbPlotSettings
  1

  2
EPSON Stylus COLOR 880
  4

  6

 40
0.0
 41
0.0
 42
0.0
 43
0.0
 44
0.0
 45
0.0
 46
0.0
 47
0.0
 48
0.0
 49
0.0
140
0.0
141
0.0
142
1.0
143
1.0
 70
  1712
 72
     0
 73
     0
 74
     0
  7

 75
     0
147
1.0
148
0.0
149
0.0
100
AcDbLayout
  1
Model
 70
     1
 71
     0
 10
0.0
 20
0.0
 11
12.0
 21
9.0
 12
0.0
 22
0.0
 32
0.0
 14
0.0
 24
0.0
 34
0.0
 15
0.0
 25
0.0
 35
0.0
146
0.0
 13
0.0
 23
0.0
 33
0.0
 16
1.0
 26
0.0
 36
0.0
 17
0.0
 27
1.0
 37
0.0
 76
     0
330
1A
331
195
  0
MATERIAL
  5
1A0
102
{ACAD_XDICTIONARY
360
1A1
102
}
102
{ACAD_REACTORS
330
197
102
}
330
197
100
AcDbMaterial
  1
ByBlock
 72
     0
 43
0.0208333333333333
 43
0.0
 43
0.0
 43
0.0
 43
0.0
 43
0.0208333333333333
 43
0.0
 43
0.0
 43
0.0
 43
0.0
 43
1.0
 43
0.0
 43
0.0
 43
0.0
 43
0.0
 43
1.0
 77
     0
 47
0.0208333333333333
 47
0.0
 47
0.0
 47
0.0
 47
0.0
 47
0.0208333333333333
 47
0.0
 47
0.0
 47
0.0
 47
0.0
 47
1.0
 47
0.0
 47
0.0
 47
0.0
 47
0.0
 47
1.0
171
     0
 49
0.0208333333333333
 49
0.0
 49
0.0
 49
0.0
 49
0.0
 49
0.0208333333333333
 49
0.0
 49
0.0
 49
0.0
 49
0.0
 49
1.0
 49
0.0
 49
0.0
 49
0.0
 49
0.0
 49
1.0
175
     0
142
0.0208333333333333
142
0.0
142
0.0
142
0.0
142
0.0
142
0.0208333333333333
142
0.0
142
0.0
142
0.0
142
0.0
142
1.0
142
0.0
142
0.0
142
0.0
142
0.0
142
1.0
179
     0
144
0.0208333333333333
144
0.0
144
0.0
144
0.0
144
0.0
144
0.0208333333333333
144
0.0
144
0.0
144
0.0
144
0.0
144
1.0
144
0.0
144
0.0
144
0.0
144
0.0
144
1.0
147
0.0208333333333333
147
0.0
147
0.0
147
0.0
147
0.0
147
0.0208333333333333
147
0.0
147
0.0
147
0.0
147
0.0
147
1.0
147
0.0
147
0.0
147
0.0
147
0.0
147
1.0
  0
MATERIAL
  5
198
102
{ACAD_XDICTIONARY
360
199
102
}
102
{ACAD_REACTORS
330
197
102
}
330
197
100
AcDbMaterial
  1
ByLayer
 72
     0
 43
0.0208333333333333
 43
0.0
 43
0.0
 43
0.0
 43
0.0
 43
0.0208333333333333
 43
0.0
 43
0.0
 43
0.0
 43
0.0
 43
1.0
 43
0.0
 43
0.0
 43
0.0
 43
0.0
 43
1.0
 77
     0
 47
0.0208333333333333
 47
0.0
 47
0.0
 47
0.0
 47
0.0
 47
0.0208333333333333
 47
0.0
 47
0.0
 47
0.0
 47
0.0
 47
1.0
 47
0.0
 47
0.0
 47
0.0
 47
0.0
 47
1.0
171
     0
 49
0.0208333333333333
 49
0.0
 49
0.0
 49
0.0
 49
0.0
 49
0.0208333333333333
 49
0.0
 49
0.0
 49
0.0
 49
0.0
 49
1.0
 49
0.0
 49
0.0
 49
0.0
 49
0.0
 49
1.0
175
     0
142
0.0208333333333333
142
0.0
142
0.0
142
0.0
142
0.0
142
0.0208333333333333
142
0.0
142
0.0
142
0.0
142
0.0
142
1.0
142
0.0
142
0.0
142
0.0
142
0.0
142
1.0
179
     0
144
0.0208333333333333
144
0.0
144
0.0
144
0.0
144
0.0
144
0.0208333333333333
144
0.0
144
0.0
144
0.0
144
0.0
144
1.0
144
0.0
144
0.0
144
0.0
144
0.0
144
1.0
147
0.0208333333333333
147
0.0
147
0.0
147
0.0
147
0.0
147
0.0208333333333333
147
0.0
147
0.0
147
0.0
147
0.0
147
1.0
147
0.0
147
0.0
147
0.0
147
0.0
147
1.0
  0
MATERIAL
  5
1A8
102
{ACAD_XDICTIONARY
360
1A9
102
}
102
{ACAD_REACTORS
330
197
102
}
330
197
100
AcDbMaterial
  1
Global
 72
     0
 43
0.0208333333333333
 43
0.0
 43
0.0
 43
0.0
 43
0.0
 43
0.0208333333333333
 43
0.0
 43
0.0
 43
0.0
 43
0.0
 43
1.0
 43
0.0
 43
0.0
 43
0.0
 43
0.0
 43
1.0
 77
     0
 47
0.0208333333333333
 47
0.0
 47
0.0
 47
0.0
 47
0.0
 47
0.0208333333333333
 47
0.0
 47
0.0
 47
0.0
 47
0.0
 47
1.0
 47
0.0
 47
0.0
 47
0.0
 47
0.0
 47
1.0
171
     0
 49
0.0208333333333333
 49
0.0
 49
0.0
 49
0.0
 49
0.0
 49
0.0208333333333333
 49
0.0
 49
0.0
 49
0.0
 49
0.0
 49
1.0
 49
0.0
 49
0.0
 49
0.0
 49
0.0
 49
1.0
175
     0
142
0.0208333333333333
142
0.0
142
0.0
142
0.0
142
0.0
142
0.0208333333333333
142
0.0
142
0.0
142
0.0
142
0.0
142
1.0
142
0.0
142
0.0
142
0.0
142
0.0
142
1.0
179
     0
144
0.0208333333333333
144
0.0
144
0.0
144
0.0
144
0.0
144
0.0208333333333333
144
0.0
144
0.0
144
0.0
144
0.0
144
1.0
144
0.0
144
0.0
144
0.0
144
0.0
144
1.0
147
0.0208333333333333
147
0.0
147
0.0
147
0.0
147
0.0
147
0.0208333333333333
147
0.0
147
0.0
147
0.0
147
0.0
147
1.0
147
0.0
147
0.0
147
0.0
147
0.0
147
1.0
  0
MLEADERSTYLE
  5
21E
102
{ACAD_REACTORS
330
1D9
102
}
330
1D9
100
AcDbMLeaderStyle
170
     2
171
     1
172
     0
 90
        2
 40
0.0
 41
0.0
173
     1
 91
-1056964608
340
14
 92
       -2
290
     1
 42
2.0
291
     1
 43
8.0
  3
Standard
 44
4.0
300

342
10
174
     1
178
     1
175
     1
176
     0
 93
-1056964608
 45
4.0
292
     0
297
     0
 46
4.0
 94
-1056964608
 47
1.0
 49
1.0
140
1.0
293
     1
141
0.0
294
     1
177
     0
142
1.0
295
     0
296
     1
143
3.75
1001
ACAD
1000
AcRTDxfName
1000
MLEADERSTYLE
1001
ACAD_MLEADERVER
1070
     2
  0
MLEADERSTYLE
  5
1DA
102
{ACAD_REACTORS
330
1D9
102
}
330
1D9
100
AcDbMLeaderStyle
170
     2
171
     1
172
     0
 90
        2
 40
0.0
 41
0.0
173
     1
 91
-1056964608
340
14
 92
       -2
290
     1
 42
2.0
291
     1
 43
0.36
  3
Standard
 44
4.0
300

342
10
174
     1
178
     6
175
     1
176
     0
 93
-1056964608
 45
4.0
292
     0
297
     0
 46
4.0
 94
-1056964608
 47
1.0
 49
1.0
140
1.0
293
     1
141
0.0
294
     1
177
     0
142
1.0
295
     0
296
     0
143
0.125
1001
ACAD_MLEADERVER
1070
     2
  0
MLINESTYLE
  5
13
102
{ACAD_REACTORS
330
E
102
}
330
E
100
AcDbMlineStyle
  2
STANDARD
 70
     0
  3

 62
     0
 51
90.0
 52
90.0
 71
     2
 49
0.5
 62
   256
  6
BYLAYER
 49
-0.5
 62
   256
  6
BYLAYER
  0
ACDBPLACEHOLDER
  5
90
102
{ACAD_REACTORS
330
8F
102
}
330
8F
  0
SCALE
  5
1C8
102
{ACAD_REACTORS
330
1C7
102
}
330
1C7
100
AcDbScale
 70
     0
300
1:1
140
1.0
141
1.0
290
     1
  0
SCALE
  5
1C9
102
{ACAD_REACTORS
330
1C7
102
}
330
1C7
100
AcDbScale
 70
     0
300
1:2
140
1.0
141
2.0
290
     0
  0
SCALE
  5
1CA
102
{ACAD_REACTORS
330
1C7
102
}
330
1C7
100
AcDbScale
 70
     0
300
1:4
140
1.0
141
4.0
290
     0
  0
SCALE
  5
1CB
102
{ACAD_REACTORS
330
1C7
102
}
330
1C7
100
AcDbScale
 70
     0
300
1:5
140
1.0
141
5.0
290
     0
  0
SCALE
  5
1CC
102
{ACAD_REACTORS
330
1C7
102
}
330
1C7
100
AcDbScale
 70
     0
300
1:8
140
1.0
141
8.0
290
     0
  0
SCALE
  5
1CD
102
{ACAD_REACTORS
330
1C7
102
}
330
1C7
100
AcDbScale
 70
     0
300
1:10
140
1.0
141
10.0
290
     0
  0
SCALE
  5
1CE
102
{ACAD_REACTORS
330
1C7
102
}
330
1C7
100
AcDbScale
 70
     0
300
1:16
140
1.0
141
16.0
290
     0
  0
SCALE
  5
1CF
102
{ACAD_REACTORS
330
1C7
102
}
330
1C7
100
AcDbScale
 70
     0
300
1:20
140
1.0
141
20.0
290
     0
  0
SCALE
  5
1D0
102
{ACAD_REACTORS
330
1C7
102
}
330
1C7
100
AcDbScale
 70
     0
300
1:30
140
1.0
141
30.0
290
     0
  0
SCALE
  5
1D1
102
{ACAD_REACTORS
330
1C7
102
}
330
1C7
100
AcDbScale
 70
     0
300
1:40
140
1.0
141
40.0
290
     0
  0
SCALE
  5
1D2
102
{ACAD_REACTORS
330
1C7
102
}
330
1C7
100
AcDbScale
 70
     0
300
1:50
140
1.0
141
50.0
290
     0
  0
SCALE
  5
1D3
102
{ACAD_REACTORS
330
1C7
102
}
330
1C7
100
AcDbScale
 70
     0
300
1:100
140
1.0
141
100.0
290
     0
  0
SCALE
  5
1D4
102
{ACAD_REACTORS
330
1C7
102
}
330
1C7
100
AcDbScale
 70
     0
300
2:1
140
2.0
141
1.0
290
     0
  0
SCALE
  5
1D5
102
{ACAD_REACTORS
330
1C7
102
}
330
1C7
100
AcDbScale
 70
     0
300
4:1
140
4.0
141
1.0
290
     0
  0
SCALE
  5
1D6
102
{ACAD_REACTORS
330
1C7
102
}
330
1C7
100
AcDbScale
 70
     0
300
8:1
140
8.0
141
1.0
290
     0
  0
SCALE
  5
1D7
102
{ACAD_REACTORS
330
1C7
102
}
330
1C7
100
AcDbScale
 70
     0
300
10:1
140
10.0
141
1.0
290
     0
  0
SCALE
  5
1D8
102
{ACAD_REACTORS
330
1C7
102
}
330
1C7
100
AcDbScale
 70
     0
300
100:1
140
100.0
141
1.0
290
     0
  0
TABLESTYLE
  5
1C6
102
{ACAD_XDICTIONARY
360
4A7
102
}
102
{ACAD_REACTORS
330
1C5
102
}
330
1C5
100
AcDbTableStyle
  3
Standard
 70
     0
 71
     0
 40
1.5
 41
1.5
280
     0
281
     0
  7
STANDARD
140
4.5
170
     2
 62
     0
 63
     7
283
     0
274
    -2
284
     1
 64
     0
275
    -2
285
     1
 65
     0
276
    -2
286
     1
 66
     0
277
    -2
287
     1
 67
     0
278
    -2
288
     1
 68
     0
279
    -2
289
     1
 69
     0
  7
STANDARD
140
6.0
170
     5
 62
     0
 63
     7
283
     0
274
    -2
284
     1
 64
     0
275
    -2
285
     1
 65
     0
276
    -2
286
     1
 66
     0
277
    -2
287
     1
 67
     0
278
    -2
288
     1
 68
     0
279
    -2
289
     1
 69
     0
  7
STANDARD
140
4.5
170
     5
 62
     0
 63
     7
283
     0
274
    -2
284
     1
 64
     0
275
    -2
285
     1
 65
     0
276
    -2
286
     1
 66
     0
277
    -2
287
     1
 67
     0
278
    -2
288
     1
 68
     0
279
    -2
289
     1
 69
     0
  0
VISUALSTYLE
  5
1B6
102
{ACAD_XDICTIONARY
360
4C2
102
}
102
{ACAD_REACTORS
330
1B0
102
}
330
1B0
100
AcDbVisualStyle
  2
2dWireframe
 70
     4
 71
     0
 72
     2
 73
     0
 90
        0
 40
-0.6
 41
-30.0
 62
     5
 63
     7
 74
     1
 91
        4
 64
     7
 65
   257
 75
     1
175
     1
 42
1.0
 92
        0
 66
   257
 43
1.0
 76
     1
 77
     6
 78
     2
 67
     7
 79
     5
170
     0
171
     0
290
     0
174
     0
 93
        1
 44
0.0
173
     0
291
     0
 45
0.0
1001
ACAD
1000
AcDbSavedByObjectVersion
1070
     0
  0
VISUALSTYLE
  5
1B8
102
{ACAD_XDICTIONARY
360
4C6
102
}
102
{ACAD_REACTORS
330
1B0
102
}
330
1B0
100
AcDbVisualStyle
  2
3D Hidden
 70
     6
 71
     1
 72
     2
 73
     2
 90
        0
 40
-0.6
 41
-30.0
 62
     5
 63
     7
 74
     2
 91
        2
 64
     7
 65
   257
 75
     2
175
     1
 42
179.0
 92
        0
 66
   257
 43
1.0
 76
     1
 77
     6
 78
     2
 67
     7
 79
     3
170
     0
171
     0
290
     0
174
     0
 93
        1
 44
0.0
173
     0
291
     0
 45
0.0
1001
ACAD
1000
AcDbSavedByObjectVersion
1070
     0
  0
VISUALSTYLE
  5
1B7
102
{ACAD_XDICTIONARY
360
4C4
102
}
102
{ACAD_REACTORS
330
1B0
102
}
330
1B0
100
AcDbVisualStyle
  2
3dWireframe
 70
     5
 71
     0
 72
     2
 73
     0
 90
        0
 40
-0.6
 41
-30.0
 62
     5
 63
     7
 74
     1
 91
        4
 64
     7
 65
   257
 75
     1
175
     1
 42
1.0
 92
        0
 66
   257
 43
1.0
 76
     1
 77
     6
 78
     2
 67
     7
 79
     5
170
     0
171
     0
290
     0
174
     0
 93
        1
 44
0.0
173
     0
291
     0
 45
0.0
1001
ACAD
1000
AcDbSavedByObjectVersion
1070
     0
  0
VISUALSTYLE
  5
1B5
102
{ACAD_XDICTIONARY
360
4C0
102
}
102
{ACAD_REACTORS
330
1B0
102
}
330
1B0
100
AcDbVisualStyle
  2
Basic
 70
     7
 71
     1
 72
     0
 73
     1
 90
        0
 40
-0.6
 41
-30.0
 62
     5
 63
     7
 74
     0
 91
        4
 64
     7
 65
   257
 75
     1
175
     1
 42
1.0
 92
        8
 66
     7
 43
1.0
 76
     1
 77
     6
 78
     2
 67
     7
 79
     5
170
     0
171
     0
290
     0
174
     0
 93
        1
 44
0.0
173
     0
291
     1
 45
0.0
1001
ACAD
1000
AcDbSavedByObjectVersion
1070
     0
  0
VISUALSTYLE
  5
1BC
102
{ACAD_XDICTIONARY
360
4CE
102
}
102
{ACAD_REACTORS
330
1B0
102
}
330
1B0
100
AcDbVisualStyle
  2
Brighten
 70
    12
 71
     2
 72
     2
 73
     0
 90
        0
 40
-0.6
 41
-30.0
 62
     5
 63
     7
 74
     1
 91
        4
 64
     7
 65
   257
 75
     1
175
     1
 42
1.0
 92
        8
 66
     7
 43
1.0
 76
     1
 77
     6
 78
     2
 67
     7
 79
     5
170
     0
171
     0
290
     0
174
     0
 93
        1
 44
50.0
173
     0
291
     1
 45
0.0
1001
ACAD
1000
AcDbSavedByObjectVersion
1070
     0
  0
VISUALSTYLE
  5
1C0
102
{ACAD_XDICTIONARY
360
4D6
102
}
102
{ACAD_REACTORS
330
1B0
102
}
330
1B0
100
AcDbVisualStyle
  2
ColorChange
 70
    16
 71
     2
 72
     2
 73
     3
 90
        0
 40
-0.6
 41
-30.0
 62
     5
 63
     8
 74
     1
 91
        4
 64
     7
 65
   257
 75
     1
175
     1
 42
1.0
 92
        8
 66
     8
 43
1.0
 76
     1
 77
     6
 78
     2
 67
     7
 79
     5
170
     0
171
     0
290
     0
174
     0
 93
        1
 44
0.0
173
     0
291
     1
 45
0.0
1001
ACAD
1000
AcDbSavedByObjectVersion
1070
     0
  0
VISUALSTYLE
  5
1B9
102
{ACAD_XDICTIONARY
360
4C8
102
}
102
{ACAD_REACTORS
330
1B0
102
}
330
1B0
100
AcDbVisualStyle
  2
Conceptual
 70
     9
 71
     3
 72
     2
 73
     0
 90
        0
 40
-0.6
 41
-30.0
 62
     5
 63
     7
 74
     2
 91
        2
 64
     7
 65
   257
 75
     1
175
     1
 42
179.0
 92
        8
 66
     7
 43
1.0
 76
     1
 77
     6
 78
     2
 67
     7
 79
     3
170
     0
171
     0
290
     0
174
     0
 93
        1
 44
0.0
173
     0
291
     0
 45
0.0
1001
ACAD
1000
AcDbSavedByObjectVersion
1070
     0
  0
VISUALSTYLE
  5
1BB
102
{ACAD_XDICTIONARY
360
4CC
102
}
102
{ACAD_REACTORS
330
1B0
102
}
330
1B0
100
AcDbVisualStyle
  2
Dim
 70
    11
 71
     2
 72
     2
 73
     0
 90
        0
 40
-0.6
 41
-30.0
 62
     5
 63
     7
 74
     1
 91
        4
 64
     7
 65
   257
 75
     1
175
     1
 42
1.0
 92
        8
 66
     7
 43
1.0
 76
     1
 77
     6
 78
     2
 67
     7
 79
     5
170
     0
171
     0
290
     0
174
     0
 93
        1
 44
-50.0
173
     0
291
     1
 45
0.0
1001
ACAD
1000
AcDbSavedByObjectVersion
1070
     0
  0
VISUALSTYLE
  5
1C3
102
{ACAD_XDICTIONARY
360
4DC
102
}
102
{ACAD_REACTORS
330
1B0
102
}
330
1B0
100
AcDbVisualStyle
  2
EdgeColorOff
 70
    22
 71
     2
 72
     2
 73
     0
 90
        0
 40
-0.6
 41
-30.0
 62
     5
 63
     7
 74
     1
 91
        4
 64
     7
 65
   257
 75
     1
175
     1
 42
1.0
 92
        8
 66
     7
 43
1.0
 76
     1
 77
     6
 78
     2
 67
     7
 79
     5
170
     0
171
     0
290
     0
174
     0
 93
        1
 44
0.0
173
     0
291
     1
 45
0.0
1001
ACAD
1000
AcDbSavedByObjectVersion
1070
     0
  0
VISUALSTYLE
  5
1BF
102
{ACAD_XDICTIONARY
360
4D4
102
}
102
{ACAD_REACTORS
330
1B0
102
}
330
1B0
100
AcDbVisualStyle
  2
Facepattern
 70
    15
 71
     2
 72
     2
 73
     0
 90
        0
 40
-0.6
 41
-30.0
 62
     5
 63
     7
 74
     1
 91
        4
 64
     7
 65
   257
 75
     1
175
     1
 42
1.0
 92
        8
 66
     7
 43
1.0
 76
     1
 77
     6
 78
     2
 67
     7
 79
     5
170
     0
171
     0
290
     0
174
     0
 93
        1
 44
0.0
173
     0
291
     1
 45
0.0
1001
ACAD
1000
AcDbSavedByObjectVersion
1070
     0
  0
VISUALSTYLE
  5
1B1
102
{ACAD_XDICTIONARY
360
4B8
102
}
102
{ACAD_REACTORS
330
1B0
102
}
330
1B0
100
AcDbVisualStyle
  2
Flat
 70
     0
 71
     2
 72
     1
 73
     1
 90
        2
 40
-0.6
 41
30.0
 62
     5
 63
     7
 74
     0
 91
        4
 64
     7
 65
   257
 75
     1
175
     1
 42
1.0
 92
        8
 66
     7
 43
1.0
 76
     1
 77
     6
 78
     2
 67
     7
 79
     5
170
     0
171
     0
290
     0
174
     0
 93
       13
 44
0.0
173
     0
291
     1
 45
0.0
1001
ACAD
1000
AcDbSavedByObjectVersion
1070
     0
  0
VISUALSTYLE
  5
1B2
102
{ACAD_XDICTIONARY
360
4BA
102
}
102
{ACAD_REACTORS
330
1B0
102
}
330
1B0
100
AcDbVisualStyle
  2
FlatWithEdges
 70
     1
 71
     2
 72
     1
 73
     1
 90
        2
 40
-0.6
 41
30.0
 62
     5
 63
     7
 74
     1
 91
        4
 64
     7
 65
   257
 75
     1
175
     1
 42
1.0
 92
        0
 66
   257
 43
1.0
 76
     1
 77
     6
 78
     2
 67
     7
 79
     5
170
     0
171
     0
290
     0
174
     0
 93
       13
 44
0.0
173
     0
291
     1
 45
0.0
1001
ACAD
1000
AcDbSavedByObjectVersion
1070
     0
  0
VISUALSTYLE
  5
1B3
102
{ACAD_XDICTIONARY
360
4BC
102
}
102
{ACAD_REACTORS
330
1B0
102
}
330
1B0
100
AcDbVisualStyle
  2
Gouraud
 70
     2
 71
     2
 72
     2
 73
     1
 90
        2
 40
-0.6
 41
30.0
 62
     5
 63
     7
 74
     0
 91
        4
 64
     7
 65
   257
 75
     1
175
     1
 42
1.0
 92
        0
 66
     7
 43
1.0
 76
     1
 77
     6
 78
     2
 67
     7
 79
     5
170
     0
171
     0
290
     0
174
     0
 93
       13
 44
0.0
173
     0
291
     1
 45
0.0
1001
ACAD
1000
AcDbSavedByObjectVersion
1070
     0
  0
VISUALSTYLE
  5
1B4
102
{ACAD_XDICTIONARY
360
4BE
102
}
102
{ACAD_REACTORS
330
1B0
102
}
330
1B0
100
AcDbVisualStyle
  2
GouraudWithEdges
 70
     3
 71
     2
 72
     2
 73
     1
 90
        2
 40
-0.6
 41
30.0
 62
     5
 63
     7
 74
     1
 91
        4
 64
     7
 65
   257
 75
     1
175
     1
 42
1.0
 92
        0
 66
   257
 43
1.0
 76
     1
 77
     6
 78
     2
 67
     7
 79
     5
170
     0
171
     0
290
     0
174
     0
 93
       13
 44
0.0
173
     0
291
     1
 45
0.0
1001
ACAD
1000
AcDbSavedByObjectVersion
1070
     0
  0
VISUALSTYLE
  5
1C1
102
{ACAD_XDICTIONARY
360
4D8
102
}
102
{ACAD_REACTORS
330
1B0
102
}
330
1B0
100
AcDbVisualStyle
  2
JitterOff
 70
    20
 71
     2
 72
     2
 73
     0
 90
        0
 40
-0.6
 41
-30.0
 62
     5
 63
     7
 74
     1
 91
        4
 64
     7
 65
   257
 75
     1
175
     1
 42
1.0
 92
       10
 66
     7
 43
1.0
 76
     1
 77
     6
 78
     2
 67
     7
 79
     5
170
     0
171
     0
290
     0
174
     0
 93
        1
 44
0.0
173
     0
291
     1
 45
0.0
1001
ACAD
1000
AcDbSavedByObjectVersion
1070
     0
  0
VISUALSTYLE
  5
1BE
102
{ACAD_XDICTIONARY
360
4D2
102
}
102
{ACAD_REACTORS
330
1B0
102
}
330
1B0
100
AcDbVisualStyle
  2
Linepattern
 70
    14
 71
     2
 72
     2
 73
     0
 90
        0
 40
-0.6
 41
-30.0
 62
     5
 63
     7
 74
     1
 91
        4
 64
     7
 65
   257
 75
     7
175
     7
 42
1.0
 92
        8
 66
     7
 43
1.0
 76
     1
 77
     6
 78
     2
 67
     7
 79
     5
170
     0
171
     0
290
     0
174
     0
 93
        1
 44
0.0
173
     0
291
     1
 45
0.0
1001
ACAD
1000
AcDbSavedByObjectVersion
1070
     0
  0
VISUALSTYLE
  5
1C2
102
{ACAD_XDICTIONARY
360
4DA
102
}
102
{ACAD_REACTORS
330
1B0
102
}
330
1B0
100
AcDbVisualStyle
  2
OverhangOff
 70
    21
 71
     2
 72
     2
 73
     0
 90
        0
 40
-0.6
 41
-30.0
 62
     5
 63
     7
 74
     1
 91
        4
 64
     7
 65
   257
 75
     1
175
     1
 42
1.0
 92
        9
 66
     7
 43
1.0
 76
     1
 77
     6
 78
     2
 67
     7
 79
     5
170
     0
171
     0
290
     0
174
     0
 93
        1
 44
0.0
173
     0
291
     1
 45
0.0
1001
ACAD
1000
AcDbSavedByObjectVersion
1070
     0
  0
VISUALSTYLE
  5
1BA
102
{ACAD_XDICTIONARY
360
4CA
102
}
102
{ACAD_REACTORS
330
1B0
102
}
330
1B0
100
AcDbVisualStyle
  2
Realistic
 70
     8
 71
     2
 72
     2
 73
     0
 90
        0
 40
-0.6
 41
-30.0
 62
     5
 63
     7
 74
     1
 91
        0
 64
     7
 65
   257
 75
     1
175
     1
 42
1.0
 92
        8
 66
     8
 43
1.0
 76
     1
 77
     6
 78
     2
 67
     7
 79
     5
170
     0
171
     0
290
     0
174
     0
 93
       13
 44
0.0
173
     0
291
     0
 45
0.0
1001
ACAD
1000
AcDbSavedByObjectVersion
1070
     0
  0
VISUALSTYLE
  5
1BD
102
{ACAD_XDICTIONARY
360
4D0
102
}
102
{ACAD_REACTORS
330
1B0
102
}
330
1B0
100
AcDbVisualStyle
  2
Thicken
 70
    13
 71
     2
 72
     2
 73
     0
 90
        0
 40
-0.6
 41
-30.0
 62
     5
 63
     7
 74
     1
 91
        4
 64
     7
 65
   257
 75
     1
175
     1
 42
1.0
 92
       12
 66
     7
 43
1.0
 76
     1
 77
     6
 78
     2
 67
     7
 79
     5
170
     0
171
     0
290
     0
174
     0
 93
        1
 44
0.0
173
     0
291
     1
 45
0.0
1001
ACAD
1000
AcDbSavedByObjectVersion
1070
     0
  0
DICTIONARYVAR
  5
4A2
102
{ACAD_REACTORS
330
5D
102
}
330
5D
100
DictionaryVariables
280
     0
  1
1:1
  0
DICTIONARYVAR
  5
4A1
102
{ACAD_REACTORS
330
5D
102
}
330
5D
100
DictionaryVariables
280
     0
  1
STANDARD
  0
DICTIONARYVAR
  5
4A0
102
{ACAD_REACTORS
330
5D
102
}
330
5D
100
DictionaryVariables
280
     0
  1
STANDARD
  0
DICTIONARYVAR
  5
5E
102
{ACAD_REACTORS
330
5D
102
}
330
5D
100
DictionaryVariables
280
     0
  1
0
  0
DICTIONARYVAR
  5
4A5
102
{ACAD_REACTORS
330
5D
102
}
330
5D
100
DictionaryVariables
280
     0
  1
1
  0
DICTIONARYVAR
  5
4A4
102
{ACAD_REACTORS
330
5D
102
}
330
5D
100
DictionaryVariables
280
     0
  1
0
  0
DICTIONARYVAR
  5
4A3
102
{ACAD_REACTORS
330
5D
102
}
330
5D
100
DictionaryVariables
280
     0
  1
127
  0
DICTIONARYVAR
  5
4A6
102
{ACAD_REACTORS
330
5D
102
}
330
5D
100
DictionaryVariables
280
     0
  1
2
  0
DICTIONARY
  5
4B1
330
94
100
AcDbDictionary
280
     1
281
     1
  3
ACAD_XREC_ROUNDTRIP
360
4B2
  0
DICTIONARY
  5
4AF
330
93
100
AcDbDictionary
280
     1
281
     1
  3
ACAD_XREC_ROUNDTRIP
360
4B0
  0
DICTIONARY
  5
1A1
330
1A0
100
AcDbDictionary
280
     1
281
     1
  3
ACAD_XREC_ROUNDTRIP
360
4B6
  3
BUMPTILE
360
1A3
  3
DIFFUSETILE
360
1A2
  3
OPACITYTILE
360
1A6
  3
REFLECTIONTILE
360
1A5
  3
REFRACTIONTILE
360
1A7
  3
SPECULARTILE
360
1A4
  0
DICTIONARY
  5
199
330
198
100
AcDbDictionary
280
     1
281
     1
  3
ACAD_XREC_ROUNDTRIP
360
4B5
  3
BUMPTILE
360
19B
  3
DIFFUSETILE
360
19A
  3
OPACITYTILE
360
19E
  3
REFLECTIONTILE
360
19D
  3
REFRACTIONTILE
360
19F
  3
SPECULARTILE
360
19C
  0
DICTIONARY
  5
1A9
330
1A8
100
AcDbDictionary
280
     1
281
     1
  3
ACAD_XREC_ROUNDTRIP
360
4B7
  3
BUMPTILE
360
1AB
  3
DIFFUSETILE
360
1AA
  3
OPACITYTILE
360
1AE
  3
REFLECTIONTILE
360
1AD
  3
REFRACTIONTILE
360
1AF
  3
SPECULARTILE
360
1AC
  0
DICTIONARY
  5
4A7
330
1C6
100
AcDbDictionary
280
     1
281
     1
  3
ACAD_ROUNDTRIP_2008_TABLESTYLE_CELLSTYLEMAP
360
4A8
  3
ACAD_XREC_ROUNDTRIP
360
4DE
  0
DICTIONARY
  5
4C2
330
1B6
100
AcDbDictionary
280
     1
281
     1
  3
ACAD_XREC_ROUNDTRIP
360
4C3
  0
DICTIONARY
  5
4C6
330
1B8
100
AcDbDictionary
280
     1
281
     1
  3
ACAD_XREC_ROUNDTRIP
360
4C7
  0
DICTIONARY
  5
4C4
330
1B7
100
AcDbDictionary
280
     1
281
     1
  3
ACAD_XREC_ROUNDTRIP
360
4C5
  0
DICTIONARY
  5
4C0
330
1B5
100
AcDbDictionary
280
     1
281
     1
  3
ACAD_XREC_ROUNDTRIP
360
4C1
  0
DICTIONARY
  5
4CE
330
1BC
100
AcDbDictionary
280
     1
281
     1
  3
ACAD_XREC_ROUNDTRIP
360
4CF
  0
DICTIONARY
  5
4D6
330
1C0
100
AcDbDictionary
280
     1
281
     1
  3
ACAD_XREC_ROUNDTRIP
360
4D7
  0
DICTIONARY
  5
4C8
330
1B9
100
AcDbDictionary
280
     1
281
     1
  3
ACAD_XREC_ROUNDTRIP
360
4C9
  0
DICTIONARY
  5
4CC
330
1BB
100
AcDbDictionary
280
     1
281
     1
  3
ACAD_XREC_ROUNDTRIP
360
4CD
  0
DICTIONARY
  5
4DC
330
1C3
100
AcDbDictionary
280
     1
281
     1
  3
ACAD_XREC_ROUNDTRIP
360
4DD
  0
DICTIONARY
  5
4D4
330
1BF
100
AcDbDictionary
280
     1
281
     1
  3
ACAD_XREC_ROUNDTRIP
360
4D5
  0
DICTIONARY
  5
4B8
330
1B1
100
AcDbDictionary
280
     1
281
     1
  3
ACAD_XREC_ROUNDTRIP
360
4B9
  0
DICTIONARY
  5
4BA
330
1B2
100
AcDbDictionary
280
     1
281
     1
  3
ACAD_XREC_ROUNDTRIP
360
4BB
  0
DICTIONARY
  5
4BC
330
1B3
100
AcDbDictionary
280
     1
281
     1
  3
ACAD_XREC_ROUNDTRIP
360
4BD
  0
DICTIONARY
  5
4BE
330
1B4
100
AcDbDictionary
280
     1
281
     1
  3
ACAD_XREC_ROUNDTRIP
360
4BF
  0
DICTIONARY
  5
4D8
330
1C1
100
AcDbDictionary
280
     1
281
     1
  3
ACAD_XREC_ROUNDTRIP
360
4D9
  0
DICTIONARY
  5
4D2
330
1BE
100
AcDbDictionary
280
     1
281
     1
  3
ACAD_XREC_ROUNDTRIP
360
4D3
  0
DICTIONARY
  5
4DA
330
1C2
100
AcDbDictionary
280
     1
281
     1
  3
ACAD_XREC_ROUNDTRIP
360
4DB
  0
DICTIONARY
  5
4CA
330
1BA
100
AcDbDictionary
280
     1
281
     1
  3
ACAD_XREC_ROUNDTRIP
360
4CB
  0
DICTIONARY
  5
4D0
330
1BD
100
AcDbDictionary
280
     1
281
     1
  3
ACAD_XREC_ROUNDTRIP
360
4D1
  0
XRECORD
  5
4B2
102
{ACAD_REACTORS
330
4B1
102
}
330
4B1
100
AcDbXrecord
280
     1
102
SHADEPLOT
 70
     0
102
SHADEPLOTRESLEVEL
 70
     2
102
SHADEPLOTCUSTOMDPI
 70
   300
  0
XRECORD
  5
4B0
102
{ACAD_REACTORS
330
4AF
102
}
330
4AF
100
AcDbXrecord
280
     1
102
SHADEPLOT
 70
     0
102
SHADEPLOTRESLEVEL
 70
     2
102
SHADEPLOTCUSTOMDPI
 70
   300
  0
XRECORD
  5
4B6
102
{ACAD_REACTORS
330
1A1
102
}
330
1A1
100
AcDbXrecord
280
     1
102
MATERIAL
148
0.0
149
0.0
149
0.0
 93
        0
 94
      127
282
     0
 72
     0
 77
     0
171
     0
175
     0
179
     0
273
     0
  0
XRECORD
  5
1A3
102
{ACAD_REACTORS
330
1A1
102
}
330
1A1
100
AcDbXrecord
280
     1
270
     1
271
     1
  0
XRECORD
  5
1A2
102
{ACAD_REACTORS
330
1A1
102
}
330
1A1
100
AcDbXrecord
280
     1
270
     1
271
     1
  0
XRECORD
  5
1A6
102
{ACAD_REACTORS
330
1A1
102
}
330
1A1
100
AcDbXrecord
280
     1
270
     1
271
     1
  0
XRECORD
  5
1A5
102
{ACAD_REACTORS
330
1A1
102
}
330
1A1
100
AcDbXrecord
280
     1
270
     1
271
     1
  0
XRECORD
  5
1A7
102
{ACAD_REACTORS
330
1A1
102
}
330
1A1
100
AcDbXrecord
280
     1
270
     1
271
     1
  0
XRECORD
  5
1A4
102
{ACAD_REACTORS
330
1A1
102
}
330
1A1
100
AcDbXrecord
280
     1
270
     1
271
     1
  0
XRECORD
  5
4B5
102
{ACAD_REACTORS
330
199
102
}
330
199
100
AcDbXrecord
280
     1
102
MATERIAL
148
0.0
149
0.0
149
0.0
 93
        0
 94
      127
282
     0
 72
     0
 77
     0
171
     0
175
     0
179
     0
273
     0
  0
XRECORD
  5
19B
102
{ACAD_REACTORS
330
199
102
}
330
199
100
AcDbXrecord
280
     1
270
     1
271
     1
  0
XRECORD
  5
19A
102
{ACAD_REACTORS
330
199
102
}
330
199
100
AcDbXrecord
280
     1
270
     1
271
     1
  0
XRECORD
  5
19E
102
{ACAD_REACTORS
330
199
102
}
330
199
100
AcDbXrecord
280
     1
270
     1
271
     1
  0
XRECORD
  5
19D
102
{ACAD_REACTORS
330
199
102
}
330
199
100
AcDbXrecord
280
     1
270
     1
271
     1
  0
XRECORD
  5
19F
102
{ACAD_REACTORS
330
199
102
}
330
199
100
AcDbXrecord
280
     1
270
     1
271
     1
  0
XRECORD
  5
19C
102
{ACAD_REACTORS
330
199
102
}
330
199
100
AcDbXrecord
280
     1
270
     1
271
     1
  0
XRECORD
  5
4B7
102
{ACAD_REACTORS
330
1A9
102
}
330
1A9
100
AcDbXrecord
280
     1
102
MATERIAL
148
0.0
149
0.0
149
0.0
 93
        0
 94
      127
282
     0
 72
     0
 77
     0
171
     0
175
     0
179
     0
273
     0
  0
XRECORD
  5
1AB
102
{ACAD_REACTORS
330
1A9
102
}
330
1A9
100
AcDbXrecord
280
     1
270
     1
271
     1
  0
XRECORD
  5
1AA
102
{ACAD_REACTORS
330
1A9
102
}
330
1A9
100
AcDbXrecord
280
     1
270
     1
271
     1
  0
XRECORD
  5
1AE
102
{ACAD_REACTORS
330
1A9
102
}
330
1A9
100
AcDbXrecord
280
     1
270
     1
271
     1
  0
XRECORD
  5
1AD
102
{ACAD_REACTORS
330
1A9
102
}
330
1A9
100
AcDbXrecord
280
     1
270
     1
271
     1
  0
XRECORD
  5
1AF
102
{ACAD_REACTORS
330
1A9
102
}
330
1A9
100
AcDbXrecord
280
     1
270
     1
271
     1
  0
XRECORD
  5
1AC
102
{ACAD_REACTORS
330
1A9
102
}
330
1A9
100
AcDbXrecord
280
     1
270
     1
271
     1
  0
CELLSTYLEMAP
  5
4A8
102
{ACAD_REACTORS
330
4A7
102
}
330
4A7
100
AcDbCellStyleMap
 90
        3
300
CELLSTYLE
  1
TABLEFORMAT_BEGIN
 90
        5
170
     1
 91
        0
 92
    32768
 62
   257
 93
        1
300
CONTENTFORMAT
  1
CONTENTFORMAT_BEGIN
 90
        0
 91
        0
 92
      512
 93
        0
300

 40
0.0
140
1.0
 94
        5
 62
     0
340
10
144
6.0
309
CONTENTFORMAT_END
171
     1
301
MARGIN
  1
CELLMARGIN_BEGIN
 40
1.5
 40
1.5
 40
1.5
 40
1.5
 40
4.5
 40
4.5
309
CELLMARGIN_END
 94
        6
 95
        1
302
GRIDFORMAT
  1
GRIDFORMAT_BEGIN
 90
        0
 91
        1
 62
     0
 92
       -2
340
0
 93
        0
 40
1.125
309
GRIDFORMAT_END
 95
        2
302
GRIDFORMAT
  1
GRIDFORMAT_BEGIN
 90
        0
 91
        1
 62
     0
 92
       -2
340
0
 93
        0
 40
1.125
309
GRIDFORMAT_END
 95
        4
302
GRIDFORMAT
  1
GRIDFORMAT_BEGIN
 90
        0
 91
        1
 62
     0
 92
       -2
340
0
 93
        0
 40
1.125
309
GRIDFORMAT_END
 95
        8
302
GRIDFORMAT
  1
GRIDFORMAT_BEGIN
 90
        0
 91
        1
 62
     0
 92
       -2
340
0
 93
        0
 40
1.125
309
GRIDFORMAT_END
 95
       16
302
GRIDFORMAT
  1
GRIDFORMAT_BEGIN
 90
        0
 91
        1
 62
     0
 92
       -2
340
0
 93
        0
 40
1.125
309
GRIDFORMAT_END
 95
       32
302
GRIDFORMAT
  1
GRIDFORMAT_BEGIN
 90
        0
 91
        1
 62
     0
 92
       -2
340
0
 93
        0
 40
1.125
309
GRIDFORMAT_END
309
TABLEFORMAT_END
  1
CELLSTYLE_BEGIN
 90
        1
 91
        1
300
_TITLE
309
CELLSTYLE_END
300
CELLSTYLE
  1
TABLEFORMAT_BEGIN
 90
        5
170
     1
 91
        0
 92
        0
 62
   257
 93
        1
300
CONTENTFORMAT
  1
CONTENTFORMAT_BEGIN
 90
        0
 91
        0
 92
      512
 93
        0
300

 40
0.0
140
1.0
 94
        5
 62
     0
340
10
144
4.5
309
CONTENTFORMAT_END
171
     1
301
MARGIN
  1
CELLMARGIN_BEGIN
 40
1.5
 40
1.5
 40
1.5
 40
1.5
 40
4.5
 40
4.5
309
CELLMARGIN_END
 94
        6
 95
        1
302
GRIDFORMAT
  1
GRIDFORMAT_BEGIN
 90
        0
 91
        1
 62
     0
 92
       -2
340
0
 93
        0
 40
1.125
309
GRIDFORMAT_END
 95
        2
302
GRIDFORMAT
  1
GRIDFORMAT_BEGIN
 90
        0
 91
        1
 62
     0
 92
       -2
340
0
 93
        0
 40
1.125
309
GRIDFORMAT_END
 95
        4
302
GRIDFORMAT
  1
GRIDFORMAT_BEGIN
 90
        0
 91
        1
 62
     0
 92
       -2
340
0
 93
        0
 40
1.125
309
GRIDFORMAT_END
 95
        8
302
GRIDFORMAT
  1
GRIDFORMAT_BEGIN
 90
        0
 91
        1
 62
     0
 92
       -2
340
0
 93
        0
 40
1.125
309
GRIDFORMAT_END
 95
       16
302
GRIDFORMAT
  1
GRIDFORMAT_BEGIN
 90
        0
 91
        1
 62
     0
 92
       -2
340
0
 93
        0
 40
1.125
309
GRIDFORMAT_END
 95
       32
302
GRIDFORMAT
  1
GRIDFORMAT_BEGIN
 90
        0
 91
        1
 62
     0
 92
       -2
340
0
 93
        0
 40
1.125
309
GRIDFORMAT_END
309
TABLEFORMAT_END
  1
CELLSTYLE_BEGIN
 90
        2
 91
        1
300
_HEADER
309
CELLSTYLE_END
300
CELLSTYLE
  1
TABLEFORMAT_BEGIN
 90
        5
170
     1
 91
        0
 92
        0
 62
   257
 93
        1
300
CONTENTFORMAT
  1
CONTENTFORMAT_BEGIN
 90
        0
 91
        0
 92
      512
 93
        0
300

 40
0.0
140
1.0
 94
        2
 62
     0
340
10
144
4.5
309
CONTENTFORMAT_END
171
     1
301
MARGIN
  1
CELLMARGIN_BEGIN
 40
1.5
 40
1.5
 40
1.5
 40
1.5
 40
4.5
 40
4.5
309
CELLMARGIN_END
 94
        6
 95
        1
302
GRIDFORMAT
  1
GRIDFORMAT_BEGIN
 90
        0
 91
        1
 62
     0
 92
       -2
340
0
 93
        0
 40
1.125
309
GRIDFORMAT_END
 95
        2
302
GRIDFORMAT
  1
GRIDFORMAT_BEGIN
 90
        0
 91
        1
 62
     0
 92
       -2
340
0
 93
        0
 40
1.125
309
GRIDFORMAT_END
 95
        4
302
GRIDFORMAT
  1
GRIDFORMAT_BEGIN
 90
        0
 91
        1
 62
     0
 92
       -2
340
0
 93
        0
 40
1.125
309
GRIDFORMAT_END
 95
        8
302
GRIDFORMAT
  1
GRIDFORMAT_BEGIN
 90
        0
 91
        1
 62
     0
 92
       -2
340
0
 93
        0
 40
1.125
309
GRIDFORMAT_END
 95
       16
302
GRIDFORMAT
  1
GRIDFORMAT_BEGIN
 90
        0
 91
        1
 62
     0
 92
       -2
340
0
 93
        0
 40
1.125
309
GRIDFORMAT_END
 95
       32
302
GRIDFORMAT
  1
GRIDFORMAT_BEGIN
 90
        0
 91
        1
 62
     0
 92
       -2
340
0
 93
        0
 40
1.125
309
GRIDFORMAT_END
309
TABLEFORMAT_END
  1
CELLSTYLE_BEGIN
 90
        3
 91
        2
300
_DATA
309
CELLSTYLE_END
  0
XRECORD
  5
4DE
102
{ACAD_REACTORS
330
4A7
102
}
330
4A7
100
AcDbXrecord
280
     1
102
ACAD_ROUNDTRIP_PRE2007_TABLESTYLE
 90
      512
 91
        0
  1

 92
      512
 93
        0
  2

 94
      512
 95
        0
  3

  0
XRECORD
  5
4C3
102
{ACAD_REACTORS
330
4C2
102
}
330
4C2
100
AcDbXrecord
280
     1
102
RTVSPropertyOp0
 70
     1
102
RTVSPropertyOp1
 70
     1
102
RTVSPropertyOp2
 70
     1
102
RTVSPropertyOp3
 70
     1
102
RTVSPropertyOp4
 70
     1
102
RTVSPropertyOp5
 70
     1
102
RTVSPropertyOp6
 70
     1
102
RTVSPropertyOp7
 70
     1
102
RTVSPropertyOp8
 70
     1
102
RTVSPropertyOp9
 70
     1
102
RTVSPropertyOp10
 70
     1
102
RTVSPropertyOp11
 70
     1
102
RTVSPropertyOp12
 70
     1
102
RTVSPropertyOp13
 70
     1
102
RTVSPropertyOp14
 70
     1
102
RTVSPropertyOp15
 70
     1
102
RTVSPropertyOp16
 70
     1
102
RTVSPropertyOp17
 70
     1
102
RTVSPropertyOp18
 70
     1
102
RTVSPropertyOp19
 70
     1
102
RTVSPropertyOp20
 70
     1
102
RTVSPropertyOp21
 70
     1
102
RTVSPropertyOp22
 70
     1
102
RTVSPropertyOp23
 70
     1
102
RTVSPropertyOp24
 70
     1
102
RTVSPropertyOp25
 70
     1
102
RTVSPropertyOp26
 70
     1
102
RTVSPropertyOp27
 70
     1
  0
XRECORD
  5
4C7
102
{ACAD_REACTORS
330
4C6
102
}
330
4C6
100
AcDbXrecord
280
     1
102
RTVSPropertyOp0
 70
     1
102
RTVSPropertyOp1
 70
     1
102
RTVSPropertyOp2
 70
     1
102
RTVSPropertyOp3
 70
     1
102
RTVSPropertyOp4
 70
     1
102
RTVSPropertyOp5
 70
     1
102
RTVSPropertyOp6
 70
     1
102
RTVSPropertyOp7
 70
     1
102
RTVSPropertyOp8
 70
     1
102
RTVSPropertyOp9
 70
     1
102
RTVSPropertyOp10
 70
     1
102
RTVSPropertyOp11
 70
     1
102
RTVSPropertyOp12
 70
     1
102
RTVSPropertyOp13
 70
     1
102
RTVSPropertyOp14
 70
     1
102
RTVSPropertyOp15
 70
     1
102
RTVSPropertyOp16
 70
     1
102
RTVSPropertyOp17
 70
     1
102
RTVSPropertyOp18
 70
     1
102
RTVSPropertyOp19
 70
     1
102
RTVSPropertyOp20
 70
     1
102
RTVSPropertyOp21
 70
     1
102
RTVSPropertyOp22
 70
     1
102
RTVSPropertyOp23
 70
     1
102
RTVSPropertyOp24
 70
     1
102
RTVSPropertyOp25
 70
     1
102
RTVSPropertyOp26
 70
     1
102
RTVSPropertyOp27
 70
     1
  0
XRECORD
  5
4C5
102
{ACAD_REACTORS
330
4C4
102
}
330
4C4
100
AcDbXrecord
280
     1
102
RTVSPropertyOp0
 70
     1
102
RTVSPropertyOp1
 70
     1
102
RTVSPropertyOp2
 70
     1
102
RTVSPropertyOp3
 70
     1
102
RTVSPropertyOp4
 70
     1
102
RTVSPropertyOp5
 70
     1
102
RTVSPropertyOp6
 70
     1
102
RTVSPropertyOp7
 70
     1
102
RTVSPropertyOp8
 70
     1
102
RTVSPropertyOp9
 70
     1
102
RTVSPropertyOp10
 70
     1
102
RTVSPropertyOp11
 70
     1
102
RTVSPropertyOp12
 70
     1
102
RTVSPropertyOp13
 70
     1
102
RTVSPropertyOp14
 70
     1
102
RTVSPropertyOp15
 70
     1
102
RTVSPropertyOp16
 70
     1
102
RTVSPropertyOp17
 70
     1
102
RTVSPropertyOp18
 70
     1
102
RTVSPropertyOp19
 70
     1
102
RTVSPropertyOp20
 70
     1
102
RTVSPropertyOp21
 70
     1
102
RTVSPropertyOp22
 70
     1
102
RTVSPropertyOp23
 70
     1
102
RTVSPropertyOp24
 70
     1
102
RTVSPropertyOp25
 70
     1
102
RTVSPropertyOp26
 70
     1
102
RTVSPropertyOp27
 70
     1
  0
XRECORD
  5
4C1
102
{ACAD_REACTORS
330
4C0
102
}
330
4C0
100
AcDbXrecord
280
     1
102
RTVSPropertyOp0
 70
     1
102
RTVSPropertyOp1
 70
     1
102
RTVSPropertyOp2
 70
     1
102
RTVSPropertyOp3
 70
     1
102
RTVSPropertyOp4
 70
     1
102
RTVSPropertyOp5
 70
     1
102
RTVSPropertyOp6
 70
     1
102
RTVSPropertyOp7
 70
     1
102
RTVSPropertyOp8
 70
     1
102
RTVSPropertyOp9
 70
     1
102
RTVSPropertyOp10
 70
     1
102
RTVSPropertyOp11
 70
     1
102
RTVSPropertyOp12
 70
     1
102
RTVSPropertyOp13
 70
     1
102
RTVSPropertyOp14
 70
     1
102
RTVSPropertyOp15
 70
     1
102
RTVSPropertyOp16
 70
     1
102
RTVSPropertyOp17
 70
     1
102
RTVSPropertyOp18
 70
     1
102
RTVSPropertyOp19
 70
     1
102
RTVSPropertyOp20
 70
     1
102
RTVSPropertyOp21
 70
     1
102
RTVSPropertyOp22
 70
     1
102
RTVSPropertyOp23
 70
     1
102
RTVSPropertyOp24
 70
     1
102
RTVSPropertyOp25
 70
     1
102
RTVSPropertyOp26
 70
     1
102
RTVSPropertyOp27
 70
     1
  0
XRECORD
  5
4CF
102
{ACAD_REACTORS
330
4CE
102
}
330
4CE
100
AcDbXrecord
280
     1
102
RTVSPropertyOp0
 70
     1
102
RTVSPropertyOp1
 70
     1
102
RTVSPropertyOp2
 70
     1
102
RTVSPropertyOp3
 70
     1
102
RTVSPropertyOp4
 70
     1
102
RTVSPropertyOp5
 70
     1
102
RTVSPropertyOp6
 70
     1
102
RTVSPropertyOp7
 70
     1
102
RTVSPropertyOp8
 70
     1
102
RTVSPropertyOp9
 70
     1
102
RTVSPropertyOp10
 70
     1
102
RTVSPropertyOp11
 70
     1
102
RTVSPropertyOp12
 70
     1
102
RTVSPropertyOp13
 70
     1
102
RTVSPropertyOp14
 70
     1
102
RTVSPropertyOp15
 70
     1
102
RTVSPropertyOp16
 70
     1
102
RTVSPropertyOp17
 70
     1
102
RTVSPropertyOp18
 70
     1
102
RTVSPropertyOp19
 70
     1
102
RTVSPropertyOp20
 70
     1
102
RTVSPropertyOp21
 70
     1
102
RTVSPropertyOp22
 70
     1
102
RTVSPropertyOp23
 70
     1
102
RTVSPropertyOp24
 70
     1
102
RTVSPropertyOp25
 70
     1
102
RTVSPropertyOp26
 70
     1
102
RTVSPropertyOp27
 70
     1
  0
XRECORD
  5
4D7
102
{ACAD_REACTORS
330
4D6
102
}
330
4D6
100
AcDbXrecord
280
     1
102
RTVSPropertyOp0
 70
     1
102
RTVSPropertyOp1
 70
     1
102
RTVSPropertyOp2
 70
     1
102
RTVSPropertyOp3
 70
     1
102
RTVSPropertyOp4
 70
     1
102
RTVSPropertyOp5
 70
     1
102
RTVSPropertyOp6
 70
     1
102
RTVSPropertyOp7
 70
     1
102
RTVSPropertyOp8
 70
     1
102
RTVSPropertyOp9
 70
     1
102
RTVSPropertyOp10
 70
     1
102
RTVSPropertyOp11
 70
     1
102
RTVSPropertyOp12
 70
     1
102
RTVSPropertyOp13
 70
     1
102
RTVSPropertyOp14
 70
     1
102
RTVSPropertyOp15
 70
     1
102
RTVSPropertyOp16
 70
     1
102
RTVSPropertyOp17
 70
     1
102
RTVSPropertyOp18
 70
     1
102
RTVSPropertyOp19
 70
     1
102
RTVSPropertyOp20
 70
     1
102
RTVSPropertyOp21
 70
     1
102
RTVSPropertyOp22
 70
     1
102
RTVSPropertyOp23
 70
     1
102
RTVSPropertyOp24
 70
     1
102
RTVSPropertyOp25
 70
     1
102
RTVSPropertyOp26
 70
     1
102
RTVSPropertyOp27
 70
     1
  0
XRECORD
  5
4C9
102
{ACAD_REACTORS
330
4C8
102
}
330
4C8
100
AcDbXrecord
280
     1
102
RTVSPropertyOp0
 70
     1
102
RTVSPropertyOp1
 70
     1
102
RTVSPropertyOp2
 70
     1
102
RTVSPropertyOp3
 70
     1
102
RTVSPropertyOp4
 70
     1
102
RTVSPropertyOp5
 70
     1
102
RTVSPropertyOp6
 70
     1
102
RTVSPropertyOp7
 70
     1
102
RTVSPropertyOp8
 70
     1
102
RTVSPropertyOp9
 70
     1
102
RTVSPropertyOp10
 70
     1
102
RTVSPropertyOp11
 70
     1
102
RTVSPropertyOp12
 70
     1
102
RTVSPropertyOp13
 70
     1
102
RTVSPropertyOp14
 70
     1
102
RTVSPropertyOp15
 70
     1
102
RTVSPropertyOp16
 70
     1
102
RTVSPropertyOp17
 70
     1
102
RTVSPropertyOp18
 70
     1
102
RTVSPropertyOp19
 70
     1
102
RTVSPropertyOp20
 70
     1
102
RTVSPropertyOp21
 70
     1
102
RTVSPropertyOp22
 70
     1
102
RTVSPropertyOp23
 70
     1
102
RTVSPropertyOp24
 70
     1
102
RTVSPropertyOp25
 70
     1
102
RTVSPropertyOp26
 70
     1
102
RTVSPropertyOp27
 70
     1
  0
XRECORD
  5
4CD
102
{ACAD_REACTORS
330
4CC
102
}
330
4CC
100
AcDbXrecord
280
     1
102
RTVSPropertyOp0
 70
     1
102
RTVSPropertyOp1
 70
     1
102
RTVSPropertyOp2
 70
     1
102
RTVSPropertyOp3
 70
     1
102
RTVSPropertyOp4
 70
     1
102
RTVSPropertyOp5
 70
     1
102
RTVSPropertyOp6
 70
     1
102
RTVSPropertyOp7
 70
     1
102
RTVSPropertyOp8
 70
     1
102
RTVSPropertyOp9
 70
     1
102
RTVSPropertyOp10
 70
     1
102
RTVSPropertyOp11
 70
     1
102
RTVSPropertyOp12
 70
     1
102
RTVSPropertyOp13
 70
     1
102
RTVSPropertyOp14
 70
     1
102
RTVSPropertyOp15
 70
     1
102
RTVSPropertyOp16
 70
     1
102
RTVSPropertyOp17
 70
     1
102
RTVSPropertyOp18
 70
     1
102
RTVSPropertyOp19
 70
     1
102
RTVSPropertyOp20
 70
     1
102
RTVSPropertyOp21
 70
     1
102
RTVSPropertyOp22
 70
     1
102
RTVSPropertyOp23
 70
     1
102
RTVSPropertyOp24
 70
     1
102
RTVSPropertyOp25
 70
     1
102
RTVSPropertyOp26
 70
     1
102
RTVSPropertyOp27
 70
     1
  0
XRECORD
  5
4DD
102
{ACAD_REACTORS
330
4DC
102
}
330
4DC
100
AcDbXrecord
280
     1
102
RTVSPropertyOp0
 70
     0
102
RTVSPropertyOp1
 70
     0
102
RTVSPropertyOp2
 70
     0
102
RTVSPropertyOp3
 70
     0
102
RTVSPropertyOp4
 70
     0
102
RTVSPropertyOp5
 70
     0
102
RTVSPropertyOp6
 70
     0
102
RTVSPropertyOp7
 70
     0
102
RTVSPropertyOp8
 70
     0
102
RTVSPropertyOp9
 70
     0
102
RTVSPropertyOp10
 70
     0
102
RTVSPropertyOp11
 70
     0
102
RTVSPropertyOp12
 70
     0
102
RTVSPropertyOp13
 70
     0
102
RTVSPropertyOp14
 70
     2
102
RTVSPropertyOp15
 70
     0
102
RTVSPropertyOp16
 70
     0
102
RTVSPropertyOp17
 70
     0
102
RTVSPropertyOp18
 70
     0
102
RTVSPropertyOp19
 70
     0
102
RTVSPropertyOp20
 70
     0
102
RTVSPropertyOp21
 70
     0
102
RTVSPropertyOp22
 70
     0
102
RTVSPropertyOp23
 70
     0
102
RTVSPropertyOp24
 70
     0
102
RTVSPropertyOp25
 70
     0
102
RTVSPropertyOp26
 70
     0
102
RTVSPropertyOp27
 70
     0
  0
XRECORD
  5
4D5
102
{ACAD_REACTORS
330
4D4
102
}
330
4D4
100
AcDbXrecord
280
     1
102
RTVSPropertyOp0
 70
     1
102
RTVSPropertyOp1
 70
     1
102
RTVSPropertyOp2
 70
     1
102
RTVSPropertyOp3
 70
     1
102
RTVSPropertyOp4
 70
     1
102
RTVSPropertyOp5
 70
     1
102
RTVSPropertyOp6
 70
     1
102
RTVSPropertyOp7
 70
     1
102
RTVSPropertyOp8
 70
     1
102
RTVSPropertyOp9
 70
     1
102
RTVSPropertyOp10
 70
     1
102
RTVSPropertyOp11
 70
     1
102
RTVSPropertyOp12
 70
     1
102
RTVSPropertyOp13
 70
     1
102
RTVSPropertyOp14
 70
     1
102
RTVSPropertyOp15
 70
     1
102
RTVSPropertyOp16
 70
     1
102
RTVSPropertyOp17
 70
     1
102
RTVSPropertyOp18
 70
     1
102
RTVSPropertyOp19
 70
     1
102
RTVSPropertyOp20
 70
     1
102
RTVSPropertyOp21
 70
     1
102
RTVSPropertyOp22
 70
     1
102
RTVSPropertyOp23
 70
     1
102
RTVSPropertyOp24
 70
     1
102
RTVSPropertyOp25
 70
     1
102
RTVSPropertyOp26
 70
     1
102
RTVSPropertyOp27
 70
     1
  0
XRECORD
  5
4B9
102
{ACAD_REACTORS
330
4B8
102
}
330
4B8
100
AcDbXrecord
280
     1
102
RTVSPropertyOp0
 70
     1
102
RTVSPropertyOp1
 70
     1
102
RTVSPropertyOp2
 70
     1
102
RTVSPropertyOp3
 70
     1
102
RTVSPropertyOp4
 70
     1
102
RTVSPropertyOp5
 70
     1
102
RTVSPropertyOp6
 70
     1
102
RTVSPropertyOp7
 70
     1
102
RTVSPropertyOp8
 70
     1
102
RTVSPropertyOp9
 70
     1
102
RTVSPropertyOp10
 70
     1
102
RTVSPropertyOp11
 70
     1
102
RTVSPropertyOp12
 70
     1
102
RTVSPropertyOp13
 70
     1
102
RTVSPropertyOp14
 70
     1
102
RTVSPropertyOp15
 70
     1
102
RTVSPropertyOp16
 70
     1
102
RTVSPropertyOp17
 70
     1
102
RTVSPropertyOp18
 70
     1
102
RTVSPropertyOp19
 70
     1
102
RTVSPropertyOp20
 70
     1
102
RTVSPropertyOp21
 70
     1
102
RTVSPropertyOp22
 70
     1
102
RTVSPropertyOp23
 70
     1
102
RTVSPropertyOp24
 70
     1
102
RTVSPropertyOp25
 70
     1
102
RTVSPropertyOp26
 70
     1
102
RTVSPropertyOp27
 70
     1
  0
XRECORD
  5
4BB
102
{ACAD_REACTORS
330
4BA
102
}
330
4BA
100
AcDbXrecord
280
     1
102
RTVSPropertyOp0
 70
     1
102
RTVSPropertyOp1
 70
     1
102
RTVSPropertyOp2
 70
     1
102
RTVSPropertyOp3
 70
     1
102
RTVSPropertyOp4
 70
     1
102
RTVSPropertyOp5
 70
     1
102
RTVSPropertyOp6
 70
     1
102
RTVSPropertyOp7
 70
     1
102
RTVSPropertyOp8
 70
     1
102
RTVSPropertyOp9
 70
     1
102
RTVSPropertyOp10
 70
     1
102
RTVSPropertyOp11
 70
     1
102
RTVSPropertyOp12
 70
     1
102
RTVSPropertyOp13
 70
     1
102
RTVSPropertyOp14
 70
     1
102
RTVSPropertyOp15
 70
     1
102
RTVSPropertyOp16
 70
     1
102
RTVSPropertyOp17
 70
     1
102
RTVSPropertyOp18
 70
     1
102
RTVSPropertyOp19
 70
     1
102
RTVSPropertyOp20
 70
     1
102
RTVSPropertyOp21
 70
     1
102
RTVSPropertyOp22
 70
     1
102
RTVSPropertyOp23
 70
     1
102
RTVSPropertyOp24
 70
     1
102
RTVSPropertyOp25
 70
     1
102
RTVSPropertyOp26
 70
     1
102
RTVSPropertyOp27
 70
     1
  0
XRECORD
  5
4BD
102
{ACAD_REACTORS
330
4BC
102
}
330
4BC
100
AcDbXrecord
280
     1
102
RTVSPropertyOp0
 70
     1
102
RTVSPropertyOp1
 70
     1
102
RTVSPropertyOp2
 70
     1
102
RTVSPropertyOp3
 70
     1
102
RTVSPropertyOp4
 70
     1
102
RTVSPropertyOp5
 70
     1
102
RTVSPropertyOp6
 70
     1
102
RTVSPropertyOp7
 70
     1
102
RTVSPropertyOp8
 70
     1
102
RTVSPropertyOp9
 70
     1
102
RTVSPropertyOp10
 70
     1
102
RTVSPropertyOp11
 70
     1
102
RTVSPropertyOp12
 70
     1
102
RTVSPropertyOp13
 70
     1
102
RTVSPropertyOp14
 70
     1
102
RTVSPropertyOp15
 70
     1
102
RTVSPropertyOp16
 70
     1
102
RTVSPropertyOp17
 70
     1
102
RTVSPropertyOp18
 70
     1
102
RTVSPropertyOp19
 70
     1
102
RTVSPropertyOp20
 70
     1
102
RTVSPropertyOp21
 70
     1
102
RTVSPropertyOp22
 70
     1
102
RTVSPropertyOp23
 70
     1
102
RTVSPropertyOp24
 70
     1
102
RTVSPropertyOp25
 70
     1
102
RTVSPropertyOp26
 70
     1
102
RTVSPropertyOp27
 70
     1
  0
XRECORD
  5
4BF
102
{ACAD_REACTORS
330
4BE
102
}
330
4BE
100
AcDbXrecord
280
     1
102
RTVSPropertyOp0
 70
     1
102
RTVSPropertyOp1
 70
     1
102
RTVSPropertyOp2
 70
     1
102
RTVSPropertyOp3
 70
     1
102
RTVSPropertyOp4
 70
     1
102
RTVSPropertyOp5
 70
     1
102
RTVSPropertyOp6
 70
     1
102
RTVSPropertyOp7
 70
     1
102
RTVSPropertyOp8
 70
     1
102
RTVSPropertyOp9
 70
     1
102
RTVSPropertyOp10
 70
     1
102
RTVSPropertyOp11
 70
     1
102
RTVSPropertyOp12
 70
     1
102
RTVSPropertyOp13
 70
     1
102
RTVSPropertyOp14
 70
     1
102
RTVSPropertyOp15
 70
     1
102
RTVSPropertyOp16
 70
     1
102
RTVSPropertyOp17
 70
     1
102
RTVSPropertyOp18
 70
     1
102
RTVSPropertyOp19
 70
     1
102
RTVSPropertyOp20
 70
     1
102
RTVSPropertyOp21
 70
     1
102
RTVSPropertyOp22
 70
     1
102
RTVSPropertyOp23
 70
     1
102
RTVSPropertyOp24
 70
     1
102
RTVSPropertyOp25
 70
     1
102
RTVSPropertyOp26
 70
     1
102
RTVSPropertyOp27
 70
     1
  0
XRECORD
  5
4D9
102
{ACAD_REACTORS
330
4D8
102
}
330
4D8
100
AcDbXrecord
280
     1
102
RTVSPropertyOp0
 70
     0
102
RTVSPropertyOp1
 70
     0
102
RTVSPropertyOp2
 70
     0
102
RTVSPropertyOp3
 70
     0
102
RTVSPropertyOp4
 70
     0
102
RTVSPropertyOp5
 70
     0
102
RTVSPropertyOp6
 70
     0
102
RTVSPropertyOp7
 70
     0
102
RTVSPropertyOp8
 70
     0
102
RTVSPropertyOp9
 70
     0
102
RTVSPropertyOp10
 70
     0
102
RTVSPropertyOp11
 70
     0
102
RTVSPropertyOp12
 70
     0
102
RTVSPropertyOp13
 70
     0
102
RTVSPropertyOp14
 70
     2
102
RTVSPropertyOp15
 70
     0
102
RTVSPropertyOp16
 70
     0
102
RTVSPropertyOp17
 70
     0
102
RTVSPropertyOp18
 70
     0
102
RTVSPropertyOp19
 70
     0
102
RTVSPropertyOp20
 70
     0
102
RTVSPropertyOp21
 70
     0
102
RTVSPropertyOp22
 70
     0
102
RTVSPropertyOp23
 70
     0
102
RTVSPropertyOp24
 70
     0
102
RTVSPropertyOp25
 70
     0
102
RTVSPropertyOp26
 70
     0
102
RTVSPropertyOp27
 70
     0
  0
XRECORD
  5
4D3
102
{ACAD_REACTORS
330
4D2
102
}
330
4D2
100
AcDbXrecord
280
     1
102
RTVSPropertyOp0
 70
     1
102
RTVSPropertyOp1
 70
     1
102
RTVSPropertyOp2
 70
     1
102
RTVSPropertyOp3
 70
     1
102
RTVSPropertyOp4
 70
     1
102
RTVSPropertyOp5
 70
     1
102
RTVSPropertyOp6
 70
     1
102
RTVSPropertyOp7
 70
     1
102
RTVSPropertyOp8
 70
     1
102
RTVSPropertyOp9
 70
     1
102
RTVSPropertyOp10
 70
     1
102
RTVSPropertyOp11
 70
     1
102
RTVSPropertyOp12
 70
     1
102
RTVSPropertyOp13
 70
     1
102
RTVSPropertyOp14
 70
     1
102
RTVSPropertyOp15
 70
     1
102
RTVSPropertyOp16
 70
     1
102
RTVSPropertyOp17
 70
     1
102
RTVSPropertyOp18
 70
     1
102
RTVSPropertyOp19
 70
     1
102
RTVSPropertyOp20
 70
     1
102
RTVSPropertyOp21
 70
     1
102
RTVSPropertyOp22
 70
     1
102
RTVSPropertyOp23
 70
     1
102
RTVSPropertyOp24
 70
     1
102
RTVSPropertyOp25
 70
     1
102
RTVSPropertyOp26
 70
     1
102
RTVSPropertyOp27
 70
     1
  0
XRECORD
  5
4DB
102
{ACAD_REACTORS
330
4DA
102
}
330
4DA
100
AcDbXrecord
280
     1
102
RTVSPropertyOp0
 70
     0
102
RTVSPropertyOp1
 70
     0
102
RTVSPropertyOp2
 70
     0
102
RTVSPropertyOp3
 70
     0
102
RTVSPropertyOp4
 70
     0
102
RTVSPropertyOp5
 70
     0
102
RTVSPropertyOp6
 70
     0
102
RTVSPropertyOp7
 70
     0
102
RTVSPropertyOp8
 70
     0
102
RTVSPropertyOp9
 70
     0
102
RTVSPropertyOp10
 70
     0
102
RTVSPropertyOp11
 70
     0
102
RTVSPropertyOp12
 70
     0
102
RTVSPropertyOp13
 70
     0
102
RTVSPropertyOp14
 70
     2
102
RTVSPropertyOp15
 70
     0
102
RTVSPropertyOp16
 70
     0
102
RTVSPropertyOp17
 70
     0
102
RTVSPropertyOp18
 70
     0
102
RTVSPropertyOp19
 70
     0
102
RTVSPropertyOp20
 70
     0
102
RTVSPropertyOp21
 70
     0
102
RTVSPropertyOp22
 70
     0
102
RTVSPropertyOp23
 70
     0
102
RTVSPropertyOp24
 70
     0
102
RTVSPropertyOp25
 70
     0
102
RTVSPropertyOp26
 70
     0
102
RTVSPropertyOp27
 70
     0
  0
XRECORD
  5
4CB
102
{ACAD_REACTORS
330
4CA
102
}
330
4CA
100
AcDbXrecord
280
     1
102
RTVSPropertyOp0
 70
     1
102
RTVSPropertyOp1
 70
     1
102
RTVSPropertyOp2
 70
     1
102
RTVSPropertyOp3
 70
     1
102
RTVSPropertyOp4
 70
     1
102
RTVSPropertyOp5
 70
     1
102
RTVSPropertyOp6
 70
     1
102
RTVSPropertyOp7
 70
     1
102
RTVSPropertyOp8
 70
     1
102
RTVSPropertyOp9
 70
     1
102
RTVSPropertyOp10
 70
     1
102
RTVSPropertyOp11
 70
     1
102
RTVSPropertyOp12
 70
     1
102
RTVSPropertyOp13
 70
     1
102
RTVSPropertyOp14
 70
     1
102
RTVSPropertyOp15
 70
     1
102
RTVSPropertyOp16
 70
     1
102
RTVSPropertyOp17
 70
     1
102
RTVSPropertyOp18
 70
     1
102
RTVSPropertyOp19
 70
     1
102
RTVSPropertyOp20
 70
     1
102
RTVSPropertyOp21
 70
     1
102
RTVSPropertyOp22
 70
     1
102
RTVSPropertyOp23
 70
     1
102
RTVSPropertyOp24
 70
     1
102
RTVSPropertyOp25
 70
     1
102
RTVSPropertyOp26
 70
     1
102
RTVSPropertyOp27
 70
     1
  0
XRECORD
  5
4D1
102
{ACAD_REACTORS
330
4D0
102
}
330
4D0
100
AcDbXrecord
280
     1
102
RTVSPropertyOp0
 70
     1
102
RTVSPropertyOp1
 70
     1
102
RTVSPropertyOp2
 70
     1
102
RTVSPropertyOp3
 70
     1
102
RTVSPropertyOp4
 70
     1
102
RTVSPropertyOp5
 70
     1
102
RTVSPropertyOp6
 70
     1
102
RTVSPropertyOp7
 70
     1
102
RTVSPropertyOp8
 70
     1
102
RTVSPropertyOp9
 70
     1
102
RTVSPropertyOp10
 70
     1
102
RTVSPropertyOp11
 70
     1
102
RTVSPropertyOp12
 70
     1
102
RTVSPropertyOp13
 70
     1
102
RTVSPropertyOp14
 70
     1
102
RTVSPropertyOp15
 70
     1
102
RTVSPropertyOp16
 70
     1
102
RTVSPropertyOp17
 70
     1
102
RTVSPropertyOp18
 70
     1
102
RTVSPropertyOp19
 70
     1
102
RTVSPropertyOp20
 70
     1
102
RTVSPropertyOp21
 70
     1
102
RTVSPropertyOp22
 70
     1
102
RTVSPropertyOp23
 70
     1
102
RTVSPropertyOp24
 70
     1
102
RTVSPropertyOp25
 70
     1
102
RTVSPropertyOp26
 70
     1
102
RTVSPropertyOp27
 70
     1
  0
ENDSEC
  0
EOF
